Song name
# A B C D E F G H I J K L M N O P Q R S T U V W X Y Z

Gomez - All Too Much tab

Ok. As far as accuracy goes, I'm guessing this is pretty close. If not, let me
know or whatever. I did this in standard E tuning by the way.
/-Slide

 Intro
e|------------------------------|
B|------------------------------|
G|-------0-2------0---3---------|
D|--3--3-----0------------------|
A|------------------------------|
E|------------------------------|

"You can make up a list.."
e|------------------------------|
B|------------------------------|
G|-------0-2------0---3---------| x2
D|--3--3-----0------------------|
A|------------------------------|
E|------------------------------|

"The occasional.." (Let the notes from the intro ring out.)
e|------0--------------0----------3---------3-----|
B|------1--------------1----------3---------3-----|
G|------2------0--2----2-----0---------3----------| x2
D|--3-------3-------0-----------------------------|
A|------------------------------------------------|
E|------------------------------------------------|

"So step right up.."
e|--5-------5-------3-------5-------5-------3---|
B|--5-------5-------3-------5-------5-------3---|
G|--7-------6-------4-------7-------6-------4---|
D|--7-------7-------5-------7-------7-------5---|
A|--7-------7-------5-------7-------7-------5---|
E|--5-------5-------3-------5-------5-------3---|

"If it cannot be slowed.."
e|--0-----0-----3-----1-----0-----0-----3-----1---|
B|--1-----3-----0-----1-----1-----3-----0-----1---|
G|--2-----2-----0-----3-----2-----2-----0-----3---|
D|--3-----0-----0-----3-----3-----0-----0-----3---|
A|--0-----------2-----1-----0-----------2-----1---|
E|--------------3-----1-----------------3-----1---|

"Like a moth to the flame.."
e|--0-----0-----3-----1-----3-----1---|
B|--1-----3-----0-----1-----0-----1---|
G|--2-----2-----0-----3-----0-----3---|
D|--3-----0-----0-----3-----0-----3---|
A|--0-----------2-----1-----2-----1---|
E|--------------3-----1-----3-----1---|

"So step right up.."
e|--5-------5-------3-------5-------5-------3---|
B|--5-------5-------3-------5-------5-------3---|
G|--7-------6-------4-------7-------6-------4---|
D|--7-------7-------5-------7-------7-------5---|
A|--7-------7-------5-------7-------7-------5---|
E|--5-------5-------3-------5-------5-------3---|

"Don't worry about it."
e|--5-------5---|
B|--5-------5---|
G|--7-------6---|
D|--7-------7---|
A|--7-------7---|
E|--5-------5---|

"Tell us what's your secret? How come.."
e|--5-------------------------------1----3----|
B|--7---------0--0------------------3----5----|
G|--7---------0--0-------2--0-------3----5----|
D|--7---------0--0----4--------4----3----5----|
A|--5-------------------------------1----3----|
E|--5-------------------------------1----3----|

"You make it look so easy, like you don't even try."
e|--0-----------1-------------3--------|
B|--1-----------3-------------5--------|
G|--2-----------3-------------5--------|
D|--2-----------3-------------5--------|
A|--0-----------1-------------3--------|
E|--------------1-------------3--------|

"Tell us what's your secret? Have you.."
e|--5-------------------------------1----3----|
B|--7---------0--0------------------3----5----|
G|--7---------0--0-------2--0-------3----5----|
D|--7---------0--0----4--------4----3----5----|
A|--5-------------------------------1----3----|
E|--5-------------------------------1----3----|

"If giving up 's so easy, why do you even try?"
e|--0-----------1-------------3--------|
B|--1-----------3-------------5--------|
G|--2-----------3-------------5--------|
D|--2-----------3-------------5--------|
A|--0-----------1-------------3--------|
E|--------------1-------------3--------|

xXBreakXx (Follow the pattern by listening to the song. The second chord is played the 
four beat count of the break."
e|--1----------5---------------1-/3---|
B|--3----------6---------------3-/5---|
G|--3----------7---------------3-/5---|
D|--3----------7---------------3-/5---|
A|--1----------5---------------1-/3---|
E|--1----------5---------------1-/3---|

'Standard' Piano Break VER 1 (Intro)
e|--------------------------------------------1-----1--------1-----1--3--1--|
B|------1------1---------1-------1---1------3-----3---3----3-----3----------|
G|----2------2---2-----2-------2---2------0-----0--------3-----3------------|
D|--3------3--------0-------0-----------------------------------------------|
A|--------------------------------------------------------------------------|
E|--------------------------------------------------------------------------|

Piano Break VER 1 [cont.] "And the record will show.."
e|--------------------------------------------1-----1--------1-----1----1--|
B|------1------1---------1-------1---1------3-----3---3----3-----3----3----|
G|----2------2---2-----2-------2---2------0-----0--------3-----3-----------|
D|--3------3--------0-------0----------------------------------------------|
A|-------------------------------------------------------------------------|
E|-------------------------------------------------------------------------|

Piano Break VER 1 [cont.] "..And you weren't fast enough."
e|------1-----1--------1------1----1---|
B|----3-----3---3----3------3----3-----|
G|--0-----0--------3------3------------|
D|-------------------------------------|
A|-------------------------------------|
E|-------------------------------------|

or

'Chords' Piano Break VER 2 (Intro)+"And the record will show.."
e|--0-----0-----3-----1-----0-----0-----3-----1---|
B|--1-----3-----0-----1-----1-----3-----0-----1---|
G|--2-----2-----0-----3-----2-----2-----0-----3---|
D|--3-----0-----0-----3-----3-----0-----0-----3---|
A|--0-----------2-----1-----0-----------2-----1---|
E|--------------3-----1-----------------3-----1---|

Piano Break VER 2 "..And you weren't fast enough."
e|--3-----1---|
B|--0-----1---|
G|--0-----3---|
D|--0-----3---|
A|--2-----1---|
E|--3-----1---|

"So step right up, everything's just fine."
e|--5-------5-------3---|
B|--5-------5-------3---|
G|--7-------6-------4---|
D|--7-------7-------5---|
A|--7-------7-------5---|
E|--5-------5-------3---|

"Don't worry about it."
e|--5-------5---|
B|--5-------5---|
G|--7-------6---|
D|--7-------7---|
A|--7-------7---|
E|--5-------5---|

"Tell us what's your secret? How come.."
e|--5--------------------------------1-----3----|
B|--7---------0--0-------------------3-----5----|
G|--7---------0--0-------2--0--------3-----5----|
D|--7---------0--0----4--------4-----3-----5----|
A|--5--------------------------------1-----3----|
E|--5--------------------------------1-----3----|

"You make it look so easy, like you don't even try."
e|--0-----------1-------------3--------|
B|--1-----------3-------------5--------|
G|--2-----------3-------------5--------|
D|--2-----------3-------------5--------|
A|--0-----------1-------------3--------|
E|--------------1-------------3--------|

"Tell us what's your secret? Have you.."
e|--5--------------------------------1-----3----|
B|--7---------0--0-------------------3-----5----|
G|--7---------0--0-------2--0--------3-----5----|
D|--7---------0--0----4--------4-----3-----5----|
A|--5--------------------------------1-----3----|
E|--5--------------------------------1-----3----|

"If giving up 's so easy, why do you even try?"
e|--0-----------1-------------3--------|
B|--1-----------3-------------5--------|
G|--2-----------3-------------5--------|
D|--2-----------3-------------5--------|
A|--0-----------1-------------3--------|
E|--------------1-------------3--------|

"It's like you don't even try.."
e|--5--------------------------------1-----3----|
B|--7---------0--0-------------------3-----5----|
G|--7---------0--0-------2--0--------3-----5----|
D|--7---------0--0----4--------4-----3-----5----|
A|--5--------------------------------1-----3----|
E|--5--------------------------------1-----3----|

"..all too much.."
e|--0-----------1-------------3--------|
B|--1-----------3-------------5--------|
G|--2-----------3-------------5--------|
D|--2-----------3-------------5--------|
A|--0-----------1-------------3--------|
E|--------------1-------------3--------|

"It's like you don't even try.."
e|--5--------------------------------1-----3----|
B|--7---------0--0-------------------3-----5----|
G|--7---------0--0-------2--0--------3-----5----|
D|--7---------0--0----4--------4-----3-----5----|
A|--5--------------------------------1-----3----|
E|--5--------------------------------1-----3----|

"..all too much. Yeah, not enough!"
e|--0-----------1-------------3--------|
B|--1-----------3-------------5--------|
G|--2-----------3-------------5--------|
D|--2-----------3-------------5--------|
A|--0-----------1-------------3--------|
E|--------------1-------------3--------|


End. <3

If you are satisfied with this post, message me and I'll attempt to tab a few more Gomez 
that aren't posted here.
Tap to rate this tab
# A B C D E F G H I J K L M N O P Q R S T U V W X Y Z