Song name
# A B C D E F G H I J K L M N O P Q R S T U V W X Y Z

Gomez - How We Operate tab

Artist: Gomez
Song: How We Operate

Since I'm no good at tabbing chords, I can provide the intro for this great song. I 
find it anywhere else.

Intro

e|--------------------|
B|--------------------|
G|----------7-7-------|  x4
D|-----5-5-------5-5--|
A|--------------------|
E|--------------------|

e|--------------------|
B|--------------------|
G|----------8-8-------|  x2
D|-----5-5-------5-5--|
A|--------------------|
E|--------------------|

(banjo starts)

e|--------------------|
B|--------------------|
G|----------7-7-------|  x6
D|-----5-5-------5-5--|
A|--------------------|
E|--------------------|

e|--------------------|
B|--------------------|
G|----------8-8-------|  x2
D|-----5-5-------5-5--|
A|--------------------|
E|--------------------|

Similar structure through the song, except for the chorus, where it isn't played.

Hope you enjoy and build onto this to make it complete!

Firestorm69
Tap to rate this tab
# A B C D E F G H I J K L M N O P Q R S T U V W X Y Z