Song name
# A B C D E F G H I J K L M N O P Q R S T U V W X Y Z

Gomez - Airstream Driver tab

Help us improve GuitareTab! Take a short survey!
Okay guys, this is my first tab ever so go easy on me.
I decided to tab this cause it's a f*ckin' amazing song and no one else had taken 
the time to tab it.

*Figure out the timing and how many times each note/chord is hit yourselves, sorry...

| *  let ring
| /  slide up
| \  slide down
| h  hammer-on
| p  pull-off
| ~  vibrato
| +  harmonic
| x  Mute note

INTRO

0:00 - 0:30

e|-------------------------------------------------------------------|
B|-------------------------------------------------------------------|
G|--7----5--------------------7----5---------------------------------|
D|--7----5----3----5----0*----7----5----3----5----3/5\3----0----0/5--|
A|--5----3----3----5----0*----5----3----3----5----3/5\3----0----0/5--|
D|------------3----5----0*--------------3----5----3/5\3----0----0/5--|


VERSE

0:31 - 1:10

e|----------------------------------------------------------------------------------------------|
B|----------------------------------------------------------------------------------------------|
G|----------------------------------------------------------------------------------------------|
D|--4-4-7-4-4-4\2-2/4---4-4-7-4-4-4\2-2-0----0-0-0-0-0-0-0-2-0--2-2/4-7-4\2 (Play this Twice!)--|
A|----------------------------------------------------------------------------------------------|
E|----------------------------------------------------------------------------------------------|

FILL

1:11 - 1:31

*Play this twice

e|-------------------------------------------|
B|-------------------------------------------|
G|----------------------------------5-4-2-4--|
D|------3----------5----------3--------------|
A|--3h5---5----3h5---5----3h5---5-5----------|
D|-------------------------------------------|

BRIDGE

2:11 - 2:47

e|------------------------------------------------------------------------------|
B|------------------------------------------------------------------------------|
G|------------------------------------------------------------------------------|
D|--X---------------------------------------------------------------------------|
A|--X-(Strum these muted strings about 20 times or so, I am too lazy to tab the rhythm).|
D|--X---------------------------------------------------------------------------|

e|------------------------------------------------------|
B|------------------------------------------------------|
G|------------------------------------------------------|
D|------------------------------------------------------|
A|--3/5-5-5-5-5-5-5-5-----------------------------------|
D|--------------------/5\3-(Play this riff six times.)--|

FILL

2:48 - 3:57 (End of Song)

e|-------------------------------------------|
B|-------------------------------------------|
G|----------------------------------5-4-2-4--|
D|------3----------5----------3--------------|
A|--3h5---5----3h5---5----3h5---5-5----------|
D|-------------------------------------------|

Please rate, comment, amend or do whatever in regard to this tab, but most of all, ENJOY!
===============================================================================
Related for Airstream Driver tab