Song name
# A B C D E F G H I J K L M N O P Q R S T U V W X Y Z

Gomez - Tear Your Love Apart tab

                          Tear Your Love Apart-Intro
                                   Gomez

                           standard tunig (EBGDAe)

  Guitar 1
E|----------------------------------------------------------------|
B|9-9-9-9-9-9-9-9-9-9-9-9-9-9-9-9-9-9-9-9-9-9-9-9-9-9-9-9-9-9-9-9-|
G|9-9-9-9-9-9-9-9-9-9-9-9-9-9-9-9-9-9-9-9-9-9-9-9-9-9-9-9-9-9-9-9-|
D|7-7-7-7-7-7-7-7-7-7-7-7-7-7-7-7-7-7-7-7-7-7-7-7-7-7-7-7-7-7-7-7-|
A|----------------------------------------------------------------|
e|----------------------------------------------------------------|
  Guitar 2
E|----------------------------------------------------------------|
B|----------------------------------------------------------------|
G|----------------------------------------------------------------|
D|------------------------------757-7-7-757-7-7-757-7-7-757-7-7-75|
A|----------------------------------------------------------------|
e|----------------------------------------------------------------|
Tap to rate this tab
# A B C D E F G H I J K L M N O P Q R S T U V W X Y Z