Song name
# A B C D E F G H I J K L M N O P Q R S T U V W X Y Z

Gomez - If I Ask You Nicely tab

Gomez: If I Ask You Nicely
Album: A New Tide

Didn't bother with the words, just the progressions. Pretty easy to work out what goes where.
Listen closely to get the awesome rhythm right.


Standard tuning

chords Used
    G   C    Bb    F   D   D#  Bm
e:--3---8-----6----1---10--11---7---------------------|
B:--3---8-----6----1---10--11---7---------------------|
G:--4---9-----7----2---11--12---7---------------------|
D:--5---10----8----3---12--13---9---------------------|
A:--5---10----8----3---12--13---9---------------------|
E:--3---8-----6----1---10--11---7---------------------|


Intro chords - repeat
G    G    C    Bb


Intro organ (it's towards the end as well)
Change octaves, add slides, hammers, whatever you want to get it sounding good.

e:--------------------------------|
B:--------------------------------|
G:--------------------------------|
D:-5--3--5------------------------|
A:----------5--7---5--7--5--3--0--|
E:--------------------------------|  X3

e:--------------------------------|
B:--------------------------------|
G:--------------------------------|
D:--------------------------------|
A:-0--3--5--7--8--7--5-3----------|
E:--------------------------------|  x1


Verse chords
G    G    C    Bb
G    F    C
G    F    C
G    C    D

Pre Chorus - just after the final D in the verses
F      C

Chorus
G    G    C    Bb - repeat

End of chorus
D#     D


Bridge
Bm     C      G     D


Solo - notes are right (I think), could be played in a different position though

e:-------------------------------------------------------------------|
B:-------------------------------------------------------0-----------|
G:-------------------10/12-12-12-10-9--9-10-9-7---7----7-----7--0--7-|
D:--7/9-9-9-10-12-12----------------------------9----9-----9-------9-|
A:-------------------------------------------------------------------|
E:-------------------------------------------------------------------|


e:-------------------------------------------------------------|
B:----------------------------------------------------0--------|
G:-------------------10/12-12-12-10-9--9-10-9-7----7--7--------|
D:--7/9-9-9-10-12-12----------------------------9-----9--------|
A:-------------------------------------------------------------|
E:-------------------------------------------------------------|


If I'm wrong in any way please correct me....
nick_cam1980@yahoo.com
Tap to rate this tab
 
# A B C D E F G H I J K L M N O P Q R S T U V W X Y Z