Song name
# A B C D E F G H I J K L M N O P Q R S T U V W X Y Z

Gomez - Ping One Down tab

Gomez: Ping One Down
Album: In Our Gun

Standard tuning

Capo on first
NOTE: all tab parts are written relative to the capo

Chords used -
relative to capo as well (the actual tonality is in brackets)

    D (D#)    C (C#)	  G (G#)
e:--2---------0-----------3----------------------------------------|
B:--3---------1-----------3----------------------------------------|
G:--2---------0-----------0----------------------------------------|
D:--0---------2-----------0----------------------------------------|
A:------------3-----------2----------------------------------------|
E:------------------------3----------------------------------------|

Bass riff

e:-------------------------------------------------------------|
B:-------------------------------------------------------------|
G:-----------------------------------------5-------------------|
D:---3-5-3-5-3------3-5-3-5-3----3-5-3-5-3---5-3-5-3-----------|
A:-5-----------5-x-------------5---------------------5---------|
E:-------------------------------------------------------------|


First guitar riff - appears in first verse.
Timing isn't depicted, use some up strokes and
muting in between notes, listen to it to get it right.

e:--0h2-2-2-2p0-0-0-------5-5----------------------------------|
B:--2---3-3-3-3-3-3--3-3--3-3----------------------------------|
G:-------------------2-2---------------------------------------|
D:-------------------------------------------------------------|
A:-------------------------------------------------------------|
E:-------------------------------------------------------------|


second riff
Appears throughout the song, firstly in the first verse though.
Listen to the track to get the correct rhythm and timing.

e:----------------------------------------------------------------|
B:-10--10--10-10-10--8--7--7--7-7-7--5--2--2--2-2-2--5--5-5-5-5-5-|
G:-7---7---7--7--7---7--7--7--7-7-7--7--3--3--3-3-3--7--5-5-5-5-7-|
D:----------------------------------------------------------------|
A:----------------------------------------------------------------|
E:----------------------------------------------------------------|


Bridge
Lots of effects, basic tonality is D#. Play a D (D#) octave
or just muck around a little using D (D#) as a base.


Chorus chords -

D        C     G

end on D7


Chorus lead

e:-------------------------------------------------------------------|
B:----------15-15-----------15-15-----------15-15--13/15-13-12-13----|
G:-12/14-14-14-14--12/14-14-14-14--12/14-14-14-14-----------------14-|
D:-------------------------------------------------------------------|
A:-------------------------------------------------------------------|
E:-------------------------------------------------------------------|


More than happy to be corrected...
nick_cam1980@yahoo.com
Tap to rate this tab
# A B C D E F G H I J K L M N O P Q R S T U V W X Y Z