Song name
# A B C D E F G H I J K L M N O P Q R S T U V W X Y Z

Gomez - Bone Tired tab

-----------------------------------------------------------------
Bone Tired - Gomez
-----------------------------------------------------------------
Tabbed by:Shannon John
Email:shannonjohn@gmail.com

Tuning:Standard Capo 3

e|----0h2-----5---2---0h2-----5---------------------5------------|
B|----3---3h5-3---3---3---3h5-3---3-----3---3---3---3---3--3-----|
G|--------2---------------2-------2-----4---4---4-------4--4-----|
D|---0---0---0-------0---0---0--------------------2--------------|
A|---------------0---------------0----2---2---2-------2---2------|
E|---------------------------------------------------------------|

e|---------------------------------------------------------------|
B|----3-----3----------------------------------------------------|
G|---4------4----------------------------------------------------|
D|-2----2h4------------------------------------------------------|
A|---------------------------------------------------------------|
E|---------------------------------------------------------------|

h=Hammer on

This Riff Plays Throughout with slight variations.

Tap to rate this tab
 
# A B C D E F G H I J K L M N O P Q R S T U V W X Y Z