Song name
# A B C D E F G H I J K L M N O P Q R S T U V W X Y Z

Gomez - How We Operate tab

Gomez - How we operate


I couldn't find a tab for this anywhere for some reason so here's a crack.
corrections most welcome - nick_cam1980@yahoo.com

I tuned to open G (DGDGBd), playing with the CD you could just transcribe this to 
tuning though,
I've heard an acoustic version where at least two of their guitars are open G and it 
heaps better.

Chords
    G   C   Bb   Eb
d:--0---5---3----8-----------------------------------------------|
B:--0---5---3----8-----------------------------------------------|
G:--0---5---3----8-----------------------------------------------|
D:--0---5---3----8-----------------------------------------------|
G:--0---5---3----8-----------------------------------------------|
D:---------------------------------------------------------------|


Intro (repeat through verses) - palm muted

d:-----------------------------------------------------------|
B:-----3-3------------3-3-----------3-3------------3-3-------|
G:-0-0-----0-0----0-0-----0-0---0-0-----0-0----0-0-----0-0---|
D:-----------------------------------------------------------|
G:-----------------------------------------------------------|
D:-----------------------------------------------------------|

d:----------------------------------------------------------|
B:-----4-4------------4-4-----------3-3------------3-3------|
G:-0-0-----0-0----0-0-----0-0---0-0-----0-0----0-0-----0-0--|
D:----------------------------------------------------------|
G:----------------------------------------------------------|
D:----------------------------------------------------------|


verse banjo riffs - repeat through verses, played on guitar later on

3 different riffs repeated start to finish - listen to it and you'll get it

d:----------------------------------------------------------|
B:--------0h3------------------3h4----0h3-------------------|
G:----0----------------------0------0-----------------------|
D:--5---5---------------------------------------------------|
G:----------------------------------------------------------|
D:----------------------------------------------------------|


d:----------------------------------------------------------|
B:--------3----3-4-3-4-3---3---4---3------------------------|
G:----0------0-----------0-------0-----0---0h4--------------|
D:--5---5----------------------------5---5------------------|
G:----------------------------------------------------------|
D:----------------------------------------------------------|


Verse chords when they kick in (repeat same progression)

		 G      Bb      G
...Please come here
		G      Bb      G
Come right on over
		Eb            C                G       Bb     G
And when we collide we'll see what gets left over


Pre chorus

      Eb
Wherever you lead, I'll follow


Chorus chords

G    Bb   C   C
G    Bb   C   C

Chorus Lead

d:-------------------------------------------------------------|
B:-------------------------------------------------------------|
G:-4-4-/-7-/-11-/-16-/-11-/-9-/-7-/-11-/-9-/-7-/-9-/-4-4br-4br-|
D:-------------------------------------------------------------|
G:-------------------------------------------------------------|
D:-------------------------------------------------------------|


Bridge riff 1 - x2

d:-------7---------7------------------------|
B:---5---5-----5-----------7---------7------|
G:-7---------7---------7/9-----7---9----9---|
D:-----7---------7-----------9--------9-----|
G:------------------------------------------|
D:------------------------------------------|


d:-------5---------5-----------0--------0---|
B:---3---3-----3----------0----3-----0--3---|
G:-5---------5----------0----------0--------|
D:-----5---------5----------0----------0----|
G:------------------------------------------|
D:------------------------------------------|


Bridge part 2 - pick notes out of the chords, bit of improv is good as well.

G
The way that we've been speaking now
   C  				  Bb
I swear that we'd be friends, I swear


Gomez - How we operate


I couldn't find a tab for this anywhere for some reason so here's a crack.
corrections most welcome - nick_cam1980@yahoo.com

I tuned to open G (DGDGBd), playing with the CD you could just transcribe this to 
tuning though,
I've heard an acoustic version where at least two of their guitars are open G and it 
heaps better.

Chords
    G   C   Bb   Eb
d:--0---5---3----8-----------------------------------------------|
B:--0---5---3----8-----------------------------------------------|
G:--0---5---3----8-----------------------------------------------|
D:--0---5---3----8-----------------------------------------------|
G:--0---5---3----8-----------------------------------------------|
D:---------------------------------------------------------------|


Intro (repeat through verses) - palm muted

d:-----------------------------------------------------------|
B:-----3-3------------3-3-----------3-3------------3-3-------|
G:-0-0-----0-0----0-0-----0-0---0-0-----0-0----0-0-----0-0---|
D:-----------------------------------------------------------|
G:-----------------------------------------------------------|
D:-----------------------------------------------------------|

d:----------------------------------------------------------|
B:-----4-4------------4-4-----------3-3------------3-3------|
G:-0-0-----0-0----0-0-----0-0---0-0-----0-0----0-0-----0-0--|
D:----------------------------------------------------------|
G:----------------------------------------------------------|
D:----------------------------------------------------------|


verse banjo riffs - repeat through verses, played on guitar later on

3 different riffs repeated start to finish - listen to it and you'll get it

d:----------------------------------------------------------|
B:--------0h3------------------3h4----0h3-------------------|
G:----0----------------------0------0-----------------------|
D:--5---5---------------------------------------------------|
G:----------------------------------------------------------|
D:----------------------------------------------------------|


d:----------------------------------------------------------|
B:--------3----3-4-3-4-3---3---4---3------------------------|
G:----0------0-----------0-------0-----0---0h4--------------|
D:--5---5----------------------------5---5------------------|
G:----------------------------------------------------------|
D:----------------------------------------------------------|


Verse chords when they kick in (repeat same progression)

		 G      Bb      G
...Please come here
		G      Bb      G
Come right on over
		Eb            C                G       Bb     G
And when we collide we'll see what gets left over


Pre chorus

      Eb
Wherever you lead, I'll follow


Chorus chords

G    Bb   C   C
G    Bb   C   C

Chorus Lead

d:-------------------------------------------------------------|
B:-------------------------------------------------------------|
G:-4-4-/-7-/-11-/-16-/-11-/-9-/-7-/-11-/-9-/-7-/-9-/-4-4br-4br-|
D:-------------------------------------------------------------|
G:-------------------------------------------------------------|
D:-------------------------------------------------------------|


Bridge riff 1 - x2

d:-------7---------7------------------------|
B:---5---5-----5-----------7---------7------|
G:-7---------7---------7/9-----7---9----9---|
D:-----7---------7-----------9--------9-----|
G:------------------------------------------|
D:------------------------------------------|


d:-------5---------5-----------0--------0---|
B:---3---3-----3----------0----3-----0--3---|
G:-5---------5----------0----------0--------|
D:-----5---------5----------0----------0----|
G:------------------------------------------|
D:------------------------------------------|


Bridge part 2 - pick notes out of the chords, bit of improv is good as well.

G
The way that we've been speaking now
   C  				  Bb
I swear that we'd be friends, I swear

Eb

G					C
'Cos all these little deals go down with
                      Bb
Little consequences, we share, we share

Eb
Tap to rate this tab
# A B C D E F G H I J K L M N O P Q R S T U V W X Y Z