Song name
# A B C D E F G H I J K L M N O P Q R S T U V W X Y Z

Gomez - Love Is Better Than A Warm Trombone tab

Help us improve GuitareTab! Take a short survey!
===================================
Love Is Better Than A Warm Trombone
===================================

Transcribed by Richard Averill.
E-mail me at nigelolympus@tinet.ie with corrections or comments.

-----
Notes
-----

Guitar 1 is an electric guitar with mild distortion and a bluesy sound.
Guitar 2 has a very sharp, twangy sound.

-----
Intro
-----

     ______________________________
    / x2                           \
   / pm          pm...              \
  1|------7--------------------------|
  2|---------5-----------6-7---6-5---|
1 3|---------------------7-7---7-7---|
  4|---------------------------------|
  5|---------------------------------|
  6|-0-----------0---0---------------|
     1   +   2   +   3   +   4   +
                          ___   ___
                         | 3 | | 3 |     pm          pm...
  1|-------------------------------------|---7---------------------------|
  2|-5-----------------------------------|-------5-----------6-7---6-5---|
1 3|-6-----------------------------------|-------------------7-7---7-7---|
  4|---------------------2---3-4---3-2---|-------------------------------|
  5|---------0---------------------------|-------------------------------|
  6|-------------------------------------0-----------0---0---------------|
     1   +   2   +   3   + . . 4 . . +   1   +   2   +   3   +   4   +
                                                          ___   ___
     pm          pm...                                   | 3 | | 3 |
  1|-----7---------------------------|-----------------------------------|
  2|---------5-----------6-7---6-5---5-----------------------------------|
1 3|---------------------7-7---7-7---6-----------------------------------|
  4|---------------------------------|-------------------2---3-4---3-2---|
  5|---------------------------------|-------0---------------------------|
  6|-0-----------0---0---------------|-----------------------------------|
     1   +   2   +   3   +   4   +   1   +   2   +   3   + . . 4 . . +
Related for Love Is Better Than A Warm Trombone tab