Song name
# A B C D E F G H I J K L M N O P Q R S T U V W X Y Z

Gomez - Make No Sound tab

-------------
Make No Sound
-------------

Artist: Gomez
Album: Bring It On (Track 3)

Transcribed by Daniel Berry
Email: jimmypage-@hotmail.com

Standard Tuning (EADGBe)

Row of x's shows slaping strings with right hand.
Listen to song to get what i mean/timing.

intro/verse/main riff - played on acoustic:

This is repeated                             |sweep chord|

e|---5-x-2---2-x-1---1-x-0-----x---5-x-2---2-x-1---------|
B|-----x-------x-------x---3-0-x-----x-------x--0--------|
G|-----x-------x-------x-------x-----x-------x---0-------|
D|-----x-------x-------x-------x-----x-------x----0------|
A|-----x-------x-------x-------x-----x-------x-----0-----|
E|-7---x---4---x---3---x-------x-7---x---4---x------3----|

Pick these chords for chorus:
Each chorus goes through twice.

    B    A    D   F#/Gb

e|--7----5----5----2--|
B|--7----5----7----2--|
G|--8----6----7----3--|
D|--9----7----7----4--|
A|--9----7----5----4--|
E|--7----5----x----2--|

For the bridge, one guitar is playing main riff while other is
twiddling around in a B scale. There's also violin in there.

End on:
           

e|------------2--|
B|-0-0h2-0----4--|
G|---------2--4--|
D|------------4--|
A|------------2--|
E|---------------|

Let final chord ring.
Thats it.



Tap to rate this tab
# A B C D E F G H I J K L M N O P Q R S T U V W X Y Z