Song name
# A B C D E F G H I J K L M N O P Q R S T U V W X Y Z

Gomez - Make No Sound tab

Make no sound by Gomez
Tabbed by Ian Kane
send all comments to tripolarity3@gmail.com
Standard tuning : eadgbe
x means to tap on the pick gaurd


   Verse/Intro
|----5---2-----2---1-----1---0-----------5--2-----2--1-----1-----x-x-x-|
|-------------------------------3--0-----------------------------x-x-x-|
|----------------------------------------------------------------x-x-x-|
|----------------------------------------------------------------x-x-x-|
|----------------------------------------------------------------x-x-x-|
|-7---------4---------3--------------- 7-------4--------3-----3--x-x-x-|

   Chorus
|------------------------------------------------------------------|
|------------------------------------------------------------------|
|----8--8-----6--6-----4--4-----3--3-----8--8----6--6----4--4----3-|
|---9-9------7-7------5-5------4-4------9-9-----7-7-----5-5-----4--|
|--9---9----7---7----5---5----4---4----9---9---7---7---5---5---4---|
|-7--------5--------3--------2--------7-------5-------3-------2----|

Tap to rate this tab
# A B C D E F G H I J K L M N O P Q R S T U V W X Y Z