Song name
# A B C D E F G H I J K L M N O P Q R S T U V W X Y Z

Gomez - Mix tab

this song is with out a doubt a challenge to figure out but heres the correct main riff 
and a working chorus email me if you figure out any additional parts of the song or even 
ideas of any thing close.

song: Mix
artist: Gomez
Album: A New Tide
tuning: Drop D
tabbed by: Ian Kane
Email: Tripolarity3@gmail.com


Main Riff
|-----------------------------------------|
|-----------------------------------------|
|-11-11-11-13-11-11---6--6--6--8--6--4----|
|-9--9--9--9--9--13---4--4--4--4--4--8----|
|-9--9--9--9--9--9----4--4--4--4--4--4----|
|-9--9--9--9--9--9----4--4--4--4--4--4----|


|----------------------------|
|----------------------------|
|-8-8-8-8-8-8-8-8-8-8-2-2----|
|-2-2-2-2-2-2-2-2-2-2-0-0----|
|-2-2-2-2-2-2-2-2-2-2-0-0----|
|-2-2-2-2-2-2-2-2-2-2-0-0----|


Chorus
|----------------------------|
|----------------------------|
|-7-7-7-7-7-7-9-9-9-9-9-9----|
|-5-5-5-5-5-5-7-7-7-7-7-7----|
|-5-5-5-5-5-5-7-7-7-7-7-7----|
|-5-5-5-5-5-5-7-7-7-7-7-7----|


|----------------------------|
|----------------------------|
|-8-8-8-8-8-8-8-8-8-8-2-2----|
|-2-2-2-2-2-2-2-2-2-2-0-0----|
|-2-2-2-2-2-2-2-2-2-2-0-0----|
|-2-2-2-2-2-2-2-2-2-2-0-0----|
Tap to rate this tab
# A B C D E F G H I J K L M N O P Q R S T U V W X Y Z