Song name
# A B C D E F G H I J K L M N O P Q R S T U V W X Y Z

Gomez - In Our Gun tab

-------------------------------------------------------------------------------
			     IN OUR GUN (ending) - Gomez
-------------------------------------------------------------------------------
Tabbed by: tinytom21
Email: tinytom21@hotmail.com

Tuning: standard (eBGDAE)

This tab starts when the song is at 3:39, cause I couldn’t find a tab for the ending on 
and it is ACE.
I have just put the high notes in brackets to show that they are double figures, eg. 
= 12, not 1 2, play them normally.

Guitar 1: Heavy distortion
Guitar 2: Clean (ish)
Guitar 3: probably a keyboard, but I thought I would tab it as best as I could.

Guitar 1 (repeat this riff throughout, until 4:58.  It pauses at 4.30 and then starts 
at 4.33)
e|-----------|---------|---------|----------|-----------|---------|---------|----------|
B|-----------|---------|---------|----------|-----------|---------|---------|----------|
G|-----------|---------|---------|----------|-----------|---------|---------|----------|
D|-----------|---------|---------|----------|-----------|---------|---------|----------|
A|-----------|---------|---------|----------|-----------|---------|---------|----------|
E|8(11)8-88-8|7-7-7-777|4-6-4-444|6-6-7-7776|8(11)8-88-8|7-7-7-777|4-6-4-444|6-6-7-7776|

Guitar 2 (comes in at 3:56, and can be heard faintly in the background, play until 4:14, 
come back in at 4.30 where a single 11 is played on the high e string, then the riff 
back in at 4.33 until 4.58)
e|--------------|--------------|----------------|----------|-----------|
B|--------------|--------------|----------------|----------|-----------|
G|8---8----8(10)|8---8----8(10)|(12)—(12)—--(12)|(10)—(10)—(10)—(10)---|
D|-(10)-(10)----|-(10)-(10)----|---(10)-(10)(10)|--(10)—(10)-(10)------|
A|--------------|--------------|----------------|----------|-----------|
E|--------------|--------------|----------------|----------|-----------|


Guitar 3 (played between 3.54-3.56, 4.39–4.41, then from 4.47 till the end)
e|-----------------------(11)---(11)-------|
B|----------------------------------(11/12)|
G|------------(12)(12)(12)-----------------|
D|(10)(10)(10)--------------(13)-----------|
A|-----------------------------------------|
E|-----------------------------------------|

| /  slide up
| \  slide down
| h  hammer-on
| p  pull-off
| ~  vibrato
| +  harmonic
| x  Mute note
===============================================================================
Tap to rate this tab
# A B C D E F G H I J K L M N O P Q R S T U V W X Y Z