Song name
# A B C D E F G H I J K L M N O P Q R S T U V W X Y Z

Gomez - 1000 Times tab

Help us improve GuitareTab! Take a short survey!
Tabbed by Smidy
10/5/02
Email : smidy2@hotmail.com
Site : http://smidy.cjb.net
I just gave the backing chords below cause they sound good played on there oen 
insted of the main riff without vocals. A capo on the 7th fret help for the riffs

Bm - 2 2 4 4 3 2

chords
E G A E
chorus
D A C Bm A


Riffs
1|----------7---
2|-------------9
3|--------7-----
4|-----9--------x2
5|--7-----------
6|--------------


1|----------7---
2|-------------8
3|--------7-----
4|-----9--------x2
5|--10----------
6|--------------


1|----------9---
2|------------10
3|--------9-----x2
4|-----7--------
5|--7-----------
6|--------------

1|----------7---
2|-------------9
3|--------7-----
4|-----9--------x2
5|--7-----------
6|--------------
Related for 1000 Times tab