Song name
# A B C D E F G H I J K L M N O P Q R S T U V W X Y Z

Gomez - Machismo tab

Machismo - Gomez

I was looking for this tab at a whole bunch of sites
but couldn't find it anywhere so I tried to tab it.

I figured out bassline preety quite and then just
barred it to see if the chords worked and they seemed to.

It's not hard to play, you just need to get the timing.

Main Riff:

e|------------2-2-|
b|----4h5-----2-2-|
g|--------6---4-4-|
d|--------6---4-4-|
a|-4--------------|
E|----------4-----|


Bass Line:

g|----------------|
d|----------------|
a|-4----------2---|
E|----------4---4-|

Just listen for the timing.
Tap to rate this tab
# A B C D E F G H I J K L M N O P Q R S T U V W X Y Z