Song name
# A B C D E F G H I J K L M N O P Q R S T U V W X Y Z

Gone Jackals - Legacy tab

-------------------------------------------------------------------------------
			    Legacy - The Gone Jackals
-------------------------------------------------------------------------------

Tabbed by: Bruno Mazotti
Version: 1
Email: bmazotti@terra.com.br
From Brazil

Tuning: Standard (EADGBe)


This song plays in the intro of the pc game Full Throttle (Lucas Arts).
Couldn't find it anywhere, so I tried to tab it (that's my first tab).
It's missing the solo.
Please, if make some corrections or additions send them to me, thanks.

Intro:

e||--------------------------------------------------------------------||
B||--------------------------------------------------------------------||
G||--------------------------------------------------------------------||
D||--------------------------------------------------------------------||
A||--------0----------2----------3----2--0-----------------------------||
E||--2-0-2------2-0-2------2-0-2--------------2--0----2----------------||

B5

E5 B5

Different riff:

e||--------------------------------------------------------------------||
B||--------------------------------------------------------------------||
G||--------------------------------------------------------------------||
D||--------------------------------------------------------------------||
A||--------0----------2----------3----2--0-----------------------------||
E||--2-0-2------2-0-2------2-0-2--------------2--0----2----------------||

e||--------------------------------------------------------------------||
B||--------------------------------------------------------------------||
G||--------------------------------------------------------------------||
D||----------------------0----------2----------3----2--0---------------||
A||--0-0-0-1-1-1---2-0-2------2-0-2------2-0-2--------------2--0----2--||
E||--------------------------------------------------------------------||

e||--------------------------------------------------------------------||
B||--------------------------------------------------------------------||
G||--------------------------------------------------------------------||
D||--------2----------4----------5----4--2-----------------------------||
A||--4-2-4------4-2-4------4-2-4------------4--------------------------||
E||--------------------------------------------0----1------------------||

Muted part:
F5 x(sometimes) E5 F5

Ending: E5

-------------------------------------------------------------------------------
Tap to rate this tab
# A B C D E F G H I J K L M N O P Q R S T U V W X Y Z