Song name
# A B C D E F G H I J K L M N O P Q R S T U V W X Y Z

Gone Jackals - Love Comes Crawling tab

Help us improve GuitareTab! Take a short survey!
Hey i'm Carlos , new on this community so this is my first tablature from a great song i 
so much apreciate it's not exactly but so aproach... I hope u enjoy yourselves guys...!

Tuning: EADGBE (Standard)

Legend

* Palm Muted
/ Slide
(b) Bending
(v) Vibrato (If it's with whammy bar, much better)

Intro (x2) / Chorus
e|-----------------------------------------------------------------------|
B|-----------------------------------------------------------------------|
G|-----------------------------------------------------------------------|
D|-----------------------------------------------------------------------|
A|--0-0-0----3-3-3---0-0-0---3-3-3---0-0-0---3-3-3-----4-0-2-3-3-3-------|
E|-----------------------------------------------------------------------|
    ****     ****    *****   *****   *****   *****

Verse 1 (x3)

e|-----------------------------------------------------------------------|
B|-----------------------------------------------------------------------|
G|-----------------------------------------------------------------------|
D|-----------------------------------------------------------------------|
A|--0----3-----0----3------0---3-------0---------------------------------|
E|------------------------------------------3----------------------------|


Verse 2 (x1)

e|-----------------------------------------------------------------------|
B|-----------------------------------------------------------------------|
G|-----------------------------------------------------------------------|
D|-----------------------------------------------------------------------|
A|-0--3--5/6--5----0-0-0-------------------------------------------------|
E|-----------------------------------------------------------------------|


e|----------------------------------------------------------------------|
B|----------------------------------------------------------------------|
G|----------------------------------------------------------------------|
D|---10----9----7--------7--5--4-------10---9---------------------------|
A|---10----9----7--------5--3--2--------8---7---------------------------|
E|----8----7----5-------------------------------------------------------|

 The Times that it repeats are two or three i'm not too sure of that, listen to the song 
will know  ^^

Bridge (Repeat the sequence like the song sounds, the jamming is this ...)

e|-----------------------------------------------------------------------|
B|-----------------------------------------------------------------------|
G|-----------------------------------------------------------------------|
D|-----------------------------------------------------------------------|
A|--00--0-0-0-0-----0--0-0-0-0---00--0-0-0-0-----------------------------|
E|-----------------------------------------------------------------------|
    **              *            **


Solo after the Bridge ...

 There are Two ways to play , this is with Power Chords...
e|-----------------------------------------------------------------------|
B|-----------------------------------------------------------------------|
G|-----------------------------------------------------------------------|
D|-----(b)9---(b)4-----(b)5----------------------------------------------|
A|--------7------2--------3---------(b)4---------------------------------|
E|-------------------------------------2---------------------------------|

Or Armonic and my favorite Way...

e|-----------------------------------------------------------------------|
B|----(b)19--------------------------------------------------------------|
G|-----------(b)18---(b)19-----(b)14-------------------------------------|
D|-----------------------------------------------------------------------|
A|-----------------------------------------------------------------------|
E|-----------------------------------------------------------------------|


Outro

e|----------------------------------------------------------------------|
B|----------------------------------------------------------------------|
G|----------------------------------------------------------------------|
D|---10----9----7--------7--5--4-------10---9--------------(v)11--------|
A|---10----9----7--------5--3--2--------8---7-----------------9---------|
E|----8----7----5-------------------------------------------------------|
                                              (Wait Drums)


Sorry i can't tab the final solo i'm working right now on it and i'm tabbing all the 
song on Dropped D too songs so powerfull too wait for it, for the moments.. enjoy this 
and greater song, cya.

All The Tab Right Reserverds by CarlosBaldivian 2009 (R)
Related for Love Comes Crawling tab