Song name
# A B C D E F G H I J K L M N O P Q R S T U V W X Y Z

Gone Jackals - Love Comes Crawling tab

       The Gone Jackals
    - Love Comes Crawling -
        Bone To Pick

       tabbed by PelzR


Tuning: Standard E

Here a tab for the song "Love Comes Crawling" by The Gone Jackals.
This version is very basic and only contains the major stuff which should be correct.
No solo, sorry.


Intro/Re-Intro 

E|-------------------------|-------------------------|
B|-------------------------|-------------------------|
G|-------------------------|-------------------------|
D|-------------------------|-------------------------|
A|-0-0-0-3-3-3-0-0-0-3-3-3-|-0-0-0-3-3-3-------------|
E|-------------------------|-------------3-3-3-1-1-1-|
   . . . . . . . . . . . .   . . . . . . . . . . . .


Verse 

E|--------------|-------------|
B|--------------|-------------|
G|--------------|-------------|
D|-2--2-5--2--5-|-2--2-5------|
A|-0--0-3--0--3-|-0--0-3--5-3-|
E|--------------|---------3-1-|



Fill
                                                
E|--------------|-----------|
B|--------------|-----------|
G|--------------|-----------|
D|--------------|-----------|
A|-7----3--5--6-|-5h6p5-3-7-|
E|-5--5---------|---------5-|


Chorus

E|-------------|---------|                     |---|
B|-------------|---------| on the last repeat  |---| this is also the
G|-10--9--7----|-------3-| the additional bar  |-2-| powerchord for the
D|-10--9--7--5-|-3--2--3-| contains this       |-2-| outro
A|--8--7--5--5-|-3--2--1-| powerchord,         |-0-|
E|-----------3-|-1--0----| let it ring         |---|



Interlude A

E|-----------------------|-----------------------|-----------------------|-----------------------|
B|-----------------------|-----------------------|-----------------------|-----------------------|
G|-----------------------|-----------------------|-----------------------|-----------------------|
D|-2--2-2-2-2-2--2-2-2-2-|-2--2-2-2-2-2--2-2-2-2-|-2--2-2-2-2-2--2-2-2-2-|-2--2-2-2-2-2--2-2-2-2-|
A|-0--0-0-0-0-0--0-0-0-0-|-0--0-0-0-0-0--0-0-0-0-|-0--0-0-0-0-0--0-0-0-0-|-0--0-0-0-0-0--0-0-0-0-|
E|-----------------------|-----------------------|-1--1-1-1-1-1--1-1-1-1-|-3--3-3-3-3-3--3-3-3-3-|

Just one note (!) because this is the way I play the interlude, the lower notes in the last 
two bars (the F and G) are played by the bass but it an sound interesting with the guitar
while playing in the rythm. of the drums.

On the record you only play an A powerchord for the Interlude:

E|---|
B|---| let it ring and
G|-2-| repeat it 
D|-2-|
A|-0-|
E|---|

   

Interlude B
 
E|------|------|
B|------|------| some rythm.
G|-2----|------| changes but 
D|-2--2-|-3--5-| the notes
A|-0--2-|-3--5-| stay the same
E|----0-|-1--3-|



Chord

E|----|
B|-13-| it's played directly
G|-12-| before the second verse
D|-12-| and it's the last chord
A|--0-| in the song
E|----|
   

Riff Structure:
---------------
Intro       2x
Verse       3x
Fill        1x
Chorus      1x
Fill        1x
Chorus      1x  
Chord       1x
Verse       3x
Fill        1x
Chorus      1x
Fill        1x
Chorus      1x
Interlude A ... as long as needed (sorry I'm too lazy to count)
Interlude B 5x 
Re-Intro    2x
Verse       3x -|
Fill        1x  |
Chorus      1x  |-> under the solo
Fill        1x  |
Chorus      1x  |
Fill        1x -|
Chorus      1x
Fill        2x
Chord       1x
Tap to rate this tab
# A B C D E F G H I J K L M N O P Q R S T U V W X Y Z