Song name
# A B C D E F G H I J K L M N O P Q R S T U V W X Y Z

Gone Jackals - Trapped tab

       The Gone Jackals
         - Trapped -
        Bone To Pick

       tabbed by PelzR
  Intro tabbed by Guitarman 92


Tuning: Standard E

The full song "Trapped" just without solo. As I mentioned above the intro was already
tabbed by Guitarman 92, no correction because it was correct.
The rest was done by myself. Again, sorry because of the missing solo.


Intro/Re-Intro (let the notes ring)     
                                                                          4x then
E|------------------|-----------------|-----------------|------------------|    |-----------------|
B|------0-------0---|-----0-------0---|-----0-------0---|-----0-------0----|    |-----0-----------|
G|o-----------------|-----------------|-----------------|-----------------o|    |---------5-4-----|
D|o---5---5---5---5-|---5---5---5---5-|---6---6---5---5-|---3---3---3---3-o|    |---3---3-----5-3-|
A|------------------|-----------------|-----------------|------------------|    |-----------------|
E|--3-------3-------|-3-------3-------|-4-------3-------|-1-------1--------|    |-1---------------|


Verse 1

E|-----------------|--------------|
B|-----------------|--------------|
G|-----------------|--------------|
D|---------3-3-3-3-|-6-6-6-6--5-3-|
A|-5-5-5-5-1-1-1-1-|-4-4-4-4--3-1-|
E|-3-3-3-3---------|--------------|


Verse 2
                                                
E|-----------------|----------------|-----------------|----------------|
B|-----------------|----------------|-----------------|----------------|
G|-----------------|----------------|-----------------|----------------|
D|-7-7-7-----------|----------------|-5-5-5-----------|----------------|
A|-5-5-5-5-5-5-5-5-|-7-7-7-5--5-5-5-|-3-3-3-3-3-3-3-3-|-5-5-5-3--3-3-3-|
E|-------6-6-6-6-6-|-5-5-5-3--3-3-3-|-------4-4-4-4-4-|-3-3-3-1--1-1-1-|


Bridge 1

E|----------|--------------|----------|---------------|
B|----------|--------------|----------|---------------|
G|----------|--------------|----------|---------------|
D|----------|--------------|----------|---------------|
A|----------|----------3-1-|----------|-------6-5-----|
E|-3-2-1----|-3-2-1--------|-3-2-1----|-3-2-1-----6-5-|
                                        . . .          (. -> palm mute)

Bridge 2
                            2x             2x                          2x
E|-----------|---------------|--------------|---------------------------|
B|-----------|---------------|--------------|---------------------------|
G|o----------|--------------o|o------------o|o-------------------------o|
D|o----------|--------------o|o------------o|o-------------------------o|
A|-----------|----------3-1--|---------3-1--|---------------------------|
E|--3-2-1----|-3-2-1---------|--3-2-1-------|--3-3-3-2-2-2-1-1-1-2-2-2--|
                                               |-3-| |-3-| |-3-| |-3-|


Interlude A

E|-------------------------|-------------------------|-------------------------|
B|-------------------------|-------------------------|-------------------------|
G|-------------------------|-------------------------|-------------------------|
D|-----R-----------R-------|-----R-------------------|-----R-----------R-------|
A|-------------------------|-------------------------|-------------------------|
E|-3-----3-3-3-3-----3-3-3-|-3-----3-3-3-3-3-3-3-3-3-|-4-----4-4-4-4-----4-4-4-|
   |-3-| |-3-| |-3-| |-3-|   |-3-| |-3-| |-3-| |-3-|   |-3-| |-3-| |-3-| |-3-| |

|-------------------------|
|-------------------------|
|-------------------------|
|-----R-------------------|
|-------------------------|
|-3-----1-1-1-1-1-1-1-1-1-|
  |-3-| |-3-| |-3-| |-3-|

Play these notes palm muted. After the solo this part is played without palm mutes 
and powerchords (notes
stays the same). Just listen to the song, it isn't hard to understand how to play 
this part. (R -> pause)


Interlude Bridge
 
E|-------------------------|---|
B|-------------------------|---|
G|-------------------------|---| let the last chord
D|-------------------------|---| ring or play the 
A|-------------------------|-5-| re-intro part
E|-1-1-1-1-1-1-1-1-1-1-1-1-|-3-| again
   |-3-| |-3-| |-3-| |-3-|


Outro

E|------
B|------
G|------    just play these 
D|------    powerchords in the
A|-5--5-    same rythm. as the 
E|-3--3-... song
   .  .
   

Riff Structure:
---------------
Intro       1x
Verse 1     4x
Verse 2     1x
Bridge 1    1x
Verse 1     4x
Verse 2     1x
Bridge 2    1x
Interlude A as long as needed
Interlude B 1x
Re-Intro    1x
Verse 1     4x
Verse 2     1x
Bridge 2    1x
Outo        1x
Tap to rate this tab
# A B C D E F G H I J K L M N O P Q R S T U V W X Y Z