Song name
# A B C D E F G H I J K L M N O P Q R S T U V W X Y Z

Goo Goo Dolls - Listen tab

   I figured this one out by watching the let love and dvd and just listening to the 
hope ya guys like it. please rate

legend:b=bend
           pm=palm mute
           /=slide


tuning: standard (both guitars)

  guitar 1: Johnny

  guitar 2: Brad

 intro guitar 1:

e-----------------------------------|
b-----------------------------------|
g--10-10-9-10-9----3-3-3------------|    play 4x\'s
d--10-10-9-10-9----3-3-3--3-3-3-3---|
a-------------------1-1-1--3-3-3-3--|
E--------------------------1-1-1-1--|

intro guitar 2:

e---------------------------|
b--5b-5b-5b-5b-----6---6----|
g---------------3-5---------|    play 4 x\'s
d---------------------3-----|
a---------------------------|
E---------------------------|

intro pt. 2 guitar 1:

e------------------------|
b------------------------|
g-3--2---------3--2--5---|
d-3--2--5------3--2--5---|
a-1--0--5------1--0--3---|
E-------3----------------|


intro pt. 2 guitar 2

e--------------------------5---------|
b----------5-6-5-3-----------5-------|
g--3--2--0-----------3-2-5-----4-----|
d------------------------------------|
a------------------------------------|
E------------------------------------|


i\'ll tab the rest of the song soon once i figure out the rythm guitar in the solo. if 
knows it, please tell me. thanks

please comment
Tap to rate this tab
# A B C D E F G H I J K L M N O P Q R S T U V W X Y Z