Guitaretab - guitar tabs
Song name
# A B C D E F G H I J K L M N O P Q R S T U V W X Y Z

Goo Goo Dolls - Stay With You Acoustic chords

Highlighted       Show chord diagrams
Usually I have a story or a back story behind the tabs I make, but for
some reason I don't have one for this. So here it is. So if you have any
problems with the timing of the song or anything, just listen to the song
then it should all make sense. And when you have made your final judgement
on the tab, please rate and/or leave a comment.

Standard tuning

Key:

~ = to ring out note or chord

Chords:

   lowEADGBe
    C:332010
    G:320033
   Am:X02210
    F:133211
D7sus:XXX213
  Em7:022033


Intro :

  C   G   Am   F (x2)
  C  G   F


Verse 1 :

 VERSE

            D7sus~
  And these streets

e)------3----3~-------|
B)----1----1----------|
G)--2-----------------|
D)--------------------|
A)--------------------|
E)--------------------|

   Turn me inside out

e)------7-------------|
B)----8----8--10~-----|
G)--9-----------------|
D)--------------------|
A)--------------------|
E)--------------------|

    Everything shines

e)------7-------------|
B)----8----8----------|
G)--9--------7~-------|
D)--------------------|
A)--------------------|
E)--------------------|

  But leaves me empty still

     D7sus~
  And I,

e)------3---3~--------|
B)----1----1----------|
G)--2-----------------|
D)--------------------|
A)--------------------|
E)--------------------|

  I'll burn this lonely house down

e)------7-------------|
B)----8----8--10~-----|
G)--9-----------------|
D)--------------------|
A)--------------------|
E)--------------------|

  If you run with me

e)------7-------------|
B)----8----8----------|
G)--9-------7~--------|
D)--------------------|
A)--------------------|
E)--------------------|


  If you run with me

Pre-chorus:

(When he holds the "me" palm mute the base strings of the G chord and let it
 build up to the chorus)

Chorus :

  C    G         Am     F
  I'll stay with you
      C                 G       Am     F
  The walls will fall before we do
     C
  So take my hand now
        G
  We'll run forever
  Am             F
  I can feel the storm inside you
  C    G         F
  I'll stay with you


Verse 2 :
[ Tab from: http://www.guitaretab.com/g/goo-goo-dolls/189825.html ]
      D7sus~
  And fooled

e)------3----3~-------|
B)----1----1----------|
G)--2-----------------|
D)--------------------|
A)--------------------|
E)--------------------|

   by my own desire

e)------7-------------|
B)----8----8--10~-----|
G)--9-----------------|
D)--------------------|
A)--------------------|
E)--------------------|

   I twist my fate

e)------7-------------|
B)----8----8----------|
G)--9-------7~--------|
D)--------------------|
A)--------------------|
E)--------------------|

    Just to feel you

      D7sus
  But you,

e)------3---3~--------|
B)----1----1----------|
G)--2-----------------|
D)--------------------|
A)--------------------|
E)--------------------|

   you turn me toward the light

e)------7-------------|
B)----8----8--10~-----|
G)--9-----------------|
D)--------------------|
A)--------------------|
E)--------------------|

  And you're one with me

e)------7-------------|
B)----8----8----------|
G)--9-------7~--------|
D)--------------------|
A)--------------------|
E)--------------------|

   Will you run with me?


Pre-chorus

Chorus

Bridge:

  Em7         F
  Now come in from this storm
      Em7         G
  And I taste you sweet and warm
                Em7
  Take what you need
                G
  Take what you need
       C       C
  From me

  Em7 G
  Now wake up this world
  F
  Wake up tonight
      F
  And run to me
  F         C    G    Am    F
  Run to me now

  C  G  Am  F


Chorus :

  C    G         Am     F
  I'll stay with you
  C                 G       Am     F
  Walls will fall before we do
     C
  So take my hand now
        G
  We'll run forever
  Am             F
  I can feel the storm inside you
  C    G         F
  I'll stay with you
      C    G         F
  And I'll stay with you

And that should be that for Stay With You by the Goo Goo Dolls. So when
you've made your final judgement on the tab please rate and/or comment.
And also be sure to take a look at my other tabs as well.

-I hope you enjoy; my little droogies.
Related for Stay With You Acoustic chords
×
Stay With You Acoustic