Song name
# A B C D E F G H I J K L M N O P Q R S T U V W X Y Z

Goo Goo Dolls - Name tab

Hello everyone. I've noticed that most of these tabs for this particular song are
so im here to try and fix most of that. i learned the intro from a book so the intro is not
someone taught it to me but i figured out the chorus by ear so here it is. Tunning was 
another problem since the tunning is very odd and most tabs for this song aren't exactly
about it. this is about 99% correct. Sorry no solo.

Tunning: D A E A E E

h=Hammer on
p=Pull off
/=slide
Intro and Verse

e|-----------0--------------------------0--------------------0-----------|
B|-----------0-------0------------------0--------------------0-----------|
G|---------------0----------------0----------0-----------0---------0-----|
D|-------0------------------------0-------------0----0---0-------0-------|
A|--0--------------------0---0------------------0----5-------------------|
E|--7--------------------7---6-------------------------------------------|

E|--------0-----------0-----------0------------------0-----0-------0------|
B|--------0-----------0-----------0------------------0-----0-------0------|
G|----------------0-----------0-----------------0----0-----0-------0------|
D|--0-------------0-----------0-----------5/7---7h9--9/12--12--12--12-----|
A|--5-------------------------------------7/9---9----9/12--12--12--12-----|
E|-------------4----------2-----------0--------------------0---0------0---|

e|---0------0----------------------0------------0--------------0----------|
B|---0------0----------------------0------------0--------------0----------|
G|---0--------------0-----0----0------0---------0----0--------------------|
D|------------------5/7---7h9--9------9p7---0--------7h9----7-------------|
A|------12-----0----7/9---9----9------9-----9--------9------9-------------|
E|------0-----------------------------------------------------------------|

Chorus

e|------0-----------------0-----------------0-----------------------------|
B|------0-----------------0-----------------0-----------------------------|
G|------0-----------------0-----------------0-----------------------------|
D|------0-----------------0-----------------0-----------------------------|
A|------4-----------------2-----------------0-----------------------------|
E|------4-----------------2-----------------0-----------------------------|
Tap to rate this tab
 
# A B C D E F G H I J K L M N O P Q R S T U V W X Y Z