Song name
# A B C D E F G H I J K L M N O P Q R S T U V W X Y Z

Goo Goo Dolls - The Sweetest Lie tab

----------------------------------------------------------------------------
			     THE SWEETEST LIE - Goo Goo Dolls
----------------------------------------------------------------------------
Tabbed by: Mike
Email: mikemonk7@gmail.com

Intro/Chorus
  
E|---------------------|
B|---------------------|
G|-7-9-7-9-7-9-14-14-9-|
D|-7-9-7-9-7-9-14-14-9-|
A|-5-7-5-7-5-7-12-12-7-|
E|---------------------| x 4

Verse (strum normally)

E|-------------------------------------------------|
B|-------------------------------------------------|
G|-9-9-9-9-9-9-9-9-9-9-9-9-7-7-7-7-7-7-7-7-7-7-7-7-|
D|-9-9-9-9-9-9-9-9-9-9-9-9-7-7-7-7-7-7-7-7-7-7-7-7-|
A|-7-7-7-7-7-7-7-7-7-7-7-7-5-5-5-5-5-5-5-5-5-5-5-5-|
E|-------------------------------------------------|
You play your part so easily you fooled yourself again

E|-------------------------------------------------|
B|-------------------------------------------------|
G|-------------------------9-9-9-9-9-9-9-9-9-9-9-9-|
D|-7-7-7-7-7-7-7-7-7-7-7-7-9-9-9-9-9-9-9-9-9-9-9-9-|
A|-7-7-7-7-7-7-7-7-7-7-7-7-7-7-7-7-7-7-7-7-7-7-7-7-|
E|-5-5-5-5-5-5-5-5-5-5-5-5-------------------------|
With your lipstick smeared across some face you’ll never see again

E|-------------------------------------------------|
B|-------------------------------------------------|
G|-9-9-9-9-9-9-9-9-9-9-9-9-7-7-7-7-7-7-7-7-7-7-7-7-|
D|-9-9-9-9-9-9-9-9-9-9-9-9-7-7-7-7-7-7-7-7-7-7-7-7-|
A|-7-7-7-7-7-7-7-7-7-7-7-7-5-5-5-5-5-5-5-5-5-5-5-5-|
E|-------------------------------------------------|
And I sat there in the corner working back my memories

E|-------------------------------------------------|
B|-------------------------------------------------|
G|-------------------------9-9-9-9-9-9-9-9-9-9-9-9-|
D|-7-7-7-7-7-7-7-7-7-7-7-7-9-9-9-9-9-9-9-9-9-9-9-9-|
A|-7-7-7-7-7-7-7-7-7-7-7-7-7-7-7-7-7-7-7-7-7-7-7-7-|
E|-5-5-5-5-5-5-5-5-5-5-5-5-------------------------|
And I wondered if the time would come you’d get around to me

Chorus

E|---------------------|
B|---------------------|
G|-7-9-7-9-7-9-14-14-9-|
D|-7-9-7-9-7-9-14-14-9-|
A|-5-7-5-7-5-7-12-12-7-|
E|---------------------| x 2
Oh oh, Oh oh, living the sweetest lie 
Oh oh, Oh oh, living the sweetest lie 

E|-------------------------------------------------|
B|-------------------------------------------------|
G|-9-9-9-9-9-9-9-9-9-9-9-9-7-7-7-7-7-7-7-7-7-7-7-7-|
D|-9-9-9-9-9-9-9-9-9-9-9-9-7-7-7-7-7-7-7-7-7-7-7-7-|
A|-7-7-7-7-7-7-7-7-7-7-7-7-5-5-5-5-5-5-5-5-5-5-5-5-|
E|-------------------------------------------------|
You made me feel electric every moment that we shared

E|-------------------------------------------------|
B|-------------------------------------------------|
G|-------------------------9-9-9-9-9-9-9-9-9-9-9-9-|
D|-7-7-7-7-7-7-7-7-7-7-7-7-9-9-9-9-9-9-9-9-9-9-9-9-|
A|-7-7-7-7-7-7-7-7-7-7-7-7-7-7-7-7-7-7-7-7-7-7-7-7-|
E|-5-5-5-5-5-5-5-5-5-5-5-5-------------------------|
But the lights went out when I realised you never even cared

E|-------------------------------------------------|
B|-------------------------------------------------|
G|-9-9-9-9-9-9-9-9-9-9-9-9-7-7-7-7-7-7-7-7-7-7-7-7-|
D|-9-9-9-9-9-9-9-9-9-9-9-9-7-7-7-7-7-7-7-7-7-7-7-7-|
A|-7-7-7-7-7-7-7-7-7-7-7-7-5-5-5-5-5-5-5-5-5-5-5-5-|
E|-------------------------------------------------|
So I picked myself back up I didn’t know where I had been

E|-------------------------------------------------|
B|-------------------------------------------------|
G|-------------------------9-9-9-9-9-9-9-9-9-9-9-9-|
D|-7-7-7-7-7-7-7-7-7-7-7-7-9-9-9-9-9-9-9-9-9-9-9-9-|
A|-7-7-7-7-7-7-7-7-7-7-7-7-7-7-7-7-7-7-7-7-7-7-7-7-|
E|-5-5-5-5-5-5-5-5-5-5-5-5-------------------------|
And the thing that makes you seem so wrong is I want you back again

Chorus

E|---------------------|
B|---------------------|
G|-7-9-7-9-7-9-14-14-9-|
D|-7-9-7-9-7-9-14-14-9-|
A|-5-7-5-7-5-7-12-12-7-|
E|---------------------| x 4
Oh oh, Oh oh, living the sweetest lie 
Yeaaaaaaah, come on baby give me love
Oh oh, Oh oh, living the sweetest lie 
Yeaaaaaaah, come on baby give me love

Bridge

E|-------------------------|
B|-------------------------|
G|-7-7-7-7-7-7-7-7-7-7-7-7-|
D|-7-7-7-7-7-7-7-7-7-7-7-7-|
A|-5-5-5-5-5-5-5-5-5-5-5-5-|
E|-------------------------|
You know you’ll never be taken

E|-------------------------|
B|-------------------------|
D|-------------------------|
D|-7-7-7-7-7-7-7-7-7-7-7-7-|
A|-7-7-7-7-7-7-7-7-7-7-7-7-|
E|-5-5-5-5-5-5-5-5-5-5-5-5-|
You love will never be taken

E|-------------------------|
B|-------------------------|
G|-9-9-9-9-9-9-9-9-9-9-9-9-|
D|-9-9-9-9-9-9-9-9-9-9-9-9-|
A|-7-7-7-7-7-7-7-7-7-7-7-7-|
E|-------------------------|
Nooooooooooow……

E|-------------------------|
B|-------------------------|
G|-7-7-7-7-7-7-7-7-7-7-7-7-|
D|-7-7-7-7-7-7-7-7-7-7-7-7-|
A|-5-5-5-5-5-5-5-5-5-5-5-5-|
E|-------------------------|
I know you’re tired of waking

E|-------------------------|
B|-------------------------|
D|-------------------------|
D|-7-7-7-7-7-7-7-7-7-7-7-7-|
A|-7-7-7-7-7-7-7-7-7-7-7-7-|
E|-5-5-5-5-5-5-5-5-5-5-5-5-|
I know you’re tired of waking

E|-------------------------|
B|-------------------------|
G|-9-9-9-9-9-9-9-9-9-9-9-9-|
D|-9-9-9-9-9-9-9-9-9-9-9-9-|
A|-7-7-7-7-7-7-7-7-7-7-7-7-|
E|-------------------------|
Uuuuuuuuuuuuuuup……

E|-------|
B|-------|
G|-7---9-|
D|-7-7-9-|
A|-5-7-7-|
E|---5---|  

E|-----------------------------|
B|-----------------------------|
G|-7---9-9-9-9-9-9-9-9-9-9-9-9-|
D|-7-7-9-9-9-9-9-9-9-9-9-9-9-9-|
A|-5-7-7-7-7-7-7-7-7-7-7-7-7-7-|
E|---5-------------------------|  

Chorus

E|---------------------|
B|---------------------|
G|-7-9-7-9-7-9-14-14-9-|
D|-7-9-7-9-7-9-14-14-9-|
A|-5-7-5-7-5-7-12-12-7-|
E|---------------------| x 4
Oh oh, Oh oh, living the sweetest lie 
Yeaaaaaaah, come on baby give me love
Oh oh, Oh oh, living the sweetest lie 
Yeaaaaaaah, come on baby give me love

E|-------|
B|-------|
G|-7---9-|
D|-7-7-9-|
A|-5-7-7-|
E|---5---| x 1

End
Tap to rate this tab
# A B C D E F G H I J K L M N O P Q R S T U V W X Y Z