Song name
# A B C D E F G H I J K L M N O P Q R S T U V W X Y Z

Goo Goo Dolls - Dizzy tab

Dizzy
by: Goo Goo Dolls
this is like my 2nd song....so i hope it's good...if so please rate it and tell me wut u 
in a comment...thanks! enjoy!

tuning
 i'm not quite sure wut the name of the tuning is...i want to say open g or open E...but
don't really know...i just know that the strings are tuned this much:
G|----------|
C|----------|
G|----------|
D|----------|
A|----------|
E|----------|

x mute while strumming

the intro is i believe in this strumming pattern, but it's strummed pretty fast...
Intro: x2
G|---------------------------------------------------|
C|o-------------------------------------------------o|
G|---------------------------------------------------|
D|--xxx-xxxxx-xxx-xxxxx-xxx-xxxxx-xxx-xxxxx----------|
A|o-xxx-xxxxx-xxx-xxxxx-xxx-xxxxx-xxx-xxxxx---------o|
E|--xxx-xxxxx-xxx-xxxxx-xxx-xxxxx-xxx-xxxxx----------|

Verse:
G|---------------------------------------------------------|
C|---------------------------------------------------------|
G|---------------------------------------------------------|
D|---9------------9----9-9--------9---9---------9------9-9-|
A|---7------------7----7-7--------7---7---------7------7-7-|
E|---0------0--0--0----0-0--------0---0--0---0--0------0-0-|
You're cynical and beautiful, you always make a scene.

G|--------------------------------------------------------------------------|
C|--------------------------------------------------------------------------|
G|--------9--------------9---9-9----------9-------9----------9--9-9---------|
D|--------7--------------7---7-7----------7-------7----------7--7-7---------|
A|-0------0-----0-----0--0---0-0----------0-------0----0---0-0--0-0---------|
E|--------------------------------------------------------------------------|
----------------------------------------------------------------------------|  You're 
you're nothing that you seem.
G|--------------------------------------------------------------------------|
C|--------------------------------------------------------------------------|
G|----------------------------------------------------------------9------9--|
D|--9-----------9----9--9--------9-----9---------9---9--9---------7------7--|
A|--7-----------7----7--7--------7-----7---------7---7--7---0-----0------0--|
E|--0--------0--0----0--0--------0-----0----0--0-0---0--0-------------------|
I'm drowning in your vanity your laugh is a disease.        You're dirty and

G|-----------------------------------------------------|
C|-----------------------------------------------------|
G|----------9---9--9-------------9--9-------999-999-55-|
D|----------7---7--7-------------7--7-------777-777-33-|
A|---0----0-0---0--0-------------0--0-0-----000-000-00-|
E|-----------------------------------------------------|
  you're sweet,  you know you're everything to me.
Chorus:
G|-----0---0--------0----------0----------0--------------------------------|
C|---0---0-0---0-0-----0-----0---0----------0------------------------------|
G|-5-------0---0-0--------5---------------------9~5-5-5-5----------------9~|
D|-3-------2---2-2--------5--------5--5-5-----3~7~5-5-5-5-5-5-5-5------3~7~|
A|-0-------0---0-0--------3--------5--5-5-----3~0~3-3-3-3-5-5-5-5------3~0~|
E|---------------------------------3--3-3-----1~----------3-3-3-3------1~--|
 ah~~~~~~~~~~~~~~~~~~~~~~~Everything you are~~Falls from the sky like a star

G|-------------------------------------------------------------------------|
C|-------------------------------------------------------------------------|
G|-5~~~~~~~----------9~~5-5-5-5--------------------------------------------|
D|-5~~~~~~~5~~~~~~3~~7~~5-5-5-5-5-5-5-5-xxx-xxxxx-xxx-xxxxx-xxx-xxxxx-xxxxx|
A|-3~~~~~~~5~~~~~~3~~0~~3-3-3-3-5-5-5-5-xxx-xxxxx-xxx-xxxxx-xxx-xxxxx-xxxxx|
E|---------3~~~~~~1~~-----------3-3-3-3-xxx-xxxxx-xxx-xxxxx-xxx-xxxxx-xxxxx|
  Everything you are~~~~Whatever, ever you want.
Verse 2
G|--------------------------------------------------------------|
C|--------------------------------------------------------------|
G|-------9------9-x-x-x-9-x-x-9-9b~~~~~~~9----9---x-x-x-9-9b~~~~|
D|-5-----9------9-x-x-x-9-x-x-9-x--------9----9---x-x-x-9-x-----|
A|-5-----7------7-x-x-x-7-x-x-7-7b~~~~~~~7----7---x-x-x-7-7b~~~~|
E|-3------------------------------------------------------------|
  I wanna kick at the machine that made you piss away your dreams

G|---------------------------------------------------------------|
C|---------------------------------------------------------------|
G|--9----9---x-x-x-9-x-x-9-9b~~~~~~~~~~~9-----9--x-x-x-9-x-x-9-9~|
D|--7----7---x-x-x-7-x-x-7-x------------7-----7--x-x-x-7-x-x-7-x-|
A|--7----7---x-x-x-7-x-x-7-7b~~~~~~~~~~~7-----7--x-x-x-7-x-x-7-7~|
E|---------------------------------------------------------------|
And tear down your defenses till there's nothing there but me.

G|--------------------------------------------------------------|
C|--------------------------------------------------------------|
G|--9--9----x-x-x-9-x-x-9-9~~~~~~9------9------x-x-x-9-x-x-9-9b~|
D|--9--9----x-x-x-9-x-x-9-x------9------9------x-x-x-9-x-x-9-x--|
A|--7--7----x-x-x-7-x-x-7-7~~~~~~7------7------x-x-x-7-x-x-7-7b~|
E|--------------------------------------------------------------|
You're angry when you're beautiful, your love is such a tease.

G|------------------------------------------------------------|
C|------------------------------------------------------------|
G|--9------9---x-x-x-9-x-x-9---9--x---------------------------|
D|--7------7---x-x-x-7-x-x-7---7--x-7-7---9/10-10/12-----12\0-|
A|--7------7---x-x-x-7-x-x-7---7--x-x-x---x-x--x--x------x----|
E|----------------------------------5-5---7/8--8//10-----10\0-|
I'm drowning in your dizzy noise, I wanna feel you scream.

(Chorus)
end on:
G|-------------|
C|-------------|
G|-5~~---------|
D|-3~~3~~3~~3~~|
A|-3~~3~~3~~3~~|
E|-1~~1~~1~~1~~|

Interlude:
G|-------0------------------0------------0-------0--------0-----0------|
C|---------0------------------0---0--------0---0------------0----------|
G|-9~~~9~----9--9\0---7---7-----7------------5-----4--4h5-----5---4----|
D|----------------------5--------------3----------------------------/7-|
A|---------------------------------------------------------------------|
E|---------------------------------------------------------------------|

G|---------------------------------------------------0---0---0---0---0---|
C|--------------------------------------------------0------0-------------|
G|---9~~~~--9~~~--7~~~9p7--12/14-------14--12--17--7---7-------7---------|
D|-7~~~~~~7~~~~~9~~~~~----------------------------9----------------9-----|
A|-----------------------------------------------------------------------|
E|---------------------------------------------------------------------8-|

----------------------------------|
----------------------------------|
----------------------------------|
-7-7-7-7--9-9-9-9--10101010--12\0-|
-7-7-7-7--9-9-9-9--10101010--12\0-|
-5-5-5-5--7-7-7-7--8-8-8-8---10\0-|

(Chorus)
Outro:
G|----------------------------------------------------------|
C|----------------------------------------------------------|
G|-9b~7------9--7--5------4----5/7---5----9b----7---9--7--5-|
D|----------------------------------------------------------|
A|----------------------------------------------------------|
E|----------------------------------------------------------|
Everything you are.       whatever, ever you want, whtever, ever you want,

G|---------------------------|
C|---------------------------|
G|5---------4--------5-------|
D|------------------------3~~|
A|------------------------3~~|
E|------------------------1~~|
  Whatever, ever you want.~~~

that's the end...hope you like it...it took me 2 hrs. to make....please rate it, and
a comment or correction, or both...thanks! rock on!! B)
Tap to rate this tab
# A B C D E F G H I J K L M N O P Q R S T U V W X Y Z