Guitaretab - guitar tabs
Song name
# A B C D E F G H I J K L M N O P Q R S T U V W X Y Z

Goo Goo Dolls - Here Is Gone tab

-----------------------------------------------------------------------------
			  HERE IS GONE - GOO GOO DOLLS

-----------------------------------------------------------------------------

Tabbed by: Woods14
Email:

Tuning:C#G#C#G#C#F

I tabbed this off of Sessions at AOL, with John playing the song solo. The strumming 
100 % correct, but im almost sure the rest is correct, enjoy.

Intro- repeat 2x

F |0-0-0-0-0-0-0-0-0-0-0-0-0-0-0-0-0-0-0-0-0-0-0-0-0-0-0-0-0-0-0-0----|
C#|-0-0-0-0-0-0-0-0-0-0-0-0-0-0-0-0-0-0-0-0-0-0-0-0-0-0-0-0-0-0-0-0----|
G#|-5/7-7-7\5-5-5-5-5/7-7-7\5-5-5-5-0-0-0-0-0-0-0-0-0-0-0-0-0-0-0-0----|
C#|7/9-9-9\7-7-7-7-7/9-9-9\7-7-7-7-x-x-x-x-x-x-x-x-0-0-0-0-0-0-0-5---|
G#|-x-------------------------------7-7-7-7-7-7-7-7-5-5-5-5-5-5-5-5----|
C#|-0-------------------------------7-7-7-7-7-7-7-7-5-5-5-5-5-5-5-5----|

Verse- repeat 3x

F |0-0-0-0-0-0-0-0-0-0-0-0-0-0-0-0-0-0-0-0-0-0-0-0-0-0-0-0-0-0-0-0----|
C#|-0-0-0-0-0-0-0-0-0-0-0-0-0-0-0-0-0-0-0-0-0-0-0-0-0-0-0-0-0-0-0-0----|
G#|-5/7-7-7\5-5-5-5-5/7-7-7\5-5-5-5-0-0-0-0-0-0-0-0-0-0-0-0-0-0-0-0----|
C#|7/9-9-9\7-7-7-7-7/9-9-9\7-7-7-7-x-x-x-x-x-x-x-x-0-0-0-0-0-0-0-5---|
G#|-x-------------------------------7-7-7-7-7-7-7-7-5-5-5-5-5-5-5-5----|
C#|-0-------------------------------7-7-7-7-7-7-7-7-5-5-5-5-5-5-5-5----|

Pre Chorus

F |-0-0-0-0-0-0-0-0-0-0-0-0-0-0-0-0-0--0--0--0--0--0--0--0--0--0-------|
C#|-0-0-0-0-0-0-0-0-0-0-0-0-0-0-0-0-0--0--0--0--0--0--0--0--0--0-------|
G#|-0-0-0-0-0-0-0-0-0-0-0-0-0-0-0-0-0--0-0--0--0--0--0--0--0--0-------|
C#|-0-0-0-0-0-0-0-0-x-x-x-x-x-x-x-x-0--0--0--0--0-0--0--0--0--0-------|
G#|-2-2-2-2-2-2-2-2-9-9-9-9-9-9-9-9-12-12-12-1212-12-12-12-12-12------|
C#|-2-2-2-2-2-2-2-2-9-9-9-9-9-9-9-9-0--0--0--0--0--0--0--0--0--0-------|

F |-0-0-0-0-0-0-0-0-0-0-0-0-0-0-0-0-0-0-0-0-0-0-0-0-0-0-0-0-0----------|
C#|-0-0-0-0-0-0-0-0-0-0-0-0-0-0-0-0-0-0-0-0-0-0-0-0-0-0-0-0-0----------|
G#|-0-0-0-0-0-0-0-0-0-0-0-0-0-0-0-0-0-0-0-0-0-0-0-0-0-0-0-0-0----------|
C#|-0-0-0-0-0-0-0-0-x-x-x-x-x-x-x-x-x-x-x-x-xx-x-0-0-0-0-0-0----------|
G#|-2-2-2-2-2-2-2-2-9-9-9-9-9-9-9-9-7-7-7-77-7-7-5-5-5-5-5-5----------|
C#|-2-2-2-2-2-2-2-2-9-9-9-9-9-9-9-9-7-7-7-7-7-7-7-5-5-5-5-5-5----------|

Chorus- repeat 2x


F |-0--0--0--0--0--0--0--0--0--0--0--0--0--0--0--0--0-0-0-0-0-0-0-0----|
C#|-0--0--0--0--0--0--0--0--0--0--0--0--0--0--0--0--0-0-0-0-0-0-0-0----|
G#|-x--x--x--x--x--x--x--x--x--x--x--x--x--x--x--x--0-0-0-0-0-0-0-0----|
C#|-12-12-12-12-12-12-12-12-12-12-12-12-12-12-12-12x-x-x-x-x-x-x-x----|
G#|-12-12-12-12-12-12-12-12-12-12-12-12-12-12-12-12-9-9-9-9-9-9-9-9----|
C#|-0--0--0--0--0--0--0--0--11-11-11-11-11-11-11-11-9-9-9-9-9-9-9-9----|


F |-0-0-0-0-0-0-0------------------------------------------------------|
C#|-0-0-0-0-0-0-0------------------------------------------------------|
G#|-0-0-0-0-0-0-0------------------------------------------------------|
C#|-0-0-0-x-x-x-x------------------------------------------------------|
G#|-7-7-7-5-5-5-5------------------------------------------------------|
C#|-7-7-7-5-5-5-5------------------------------------------------------|

Verse- repeat 3x


F |0-0-0-0-0-0-0-0-0-0-0-0-0-0-0-0-0-0-0-0-0-0-0-0-0-0-0-0-0-0-0-0----|
C#|-0-0-0-0-0-0-0-0-0-0-0-0-0-0-0-0-0-0-0-0-0-0-0-0-0-0-0-0-0-0-0-0----|
G#|-5/7-7-7\5-5-5-5-5/7-7-7\5-5-5-5-0-0-0-0-0-0-0-0-0-0-0-0-0-0-0-0----|
C#|7/9-9-9\7-7-7-7-7/9-9-9\7-7-7-7-x-x-x-x-x-x-x-x-0-0-0-0-0-0-0-5---|
G#|-x-------------------------------7-7-7-7-7-7-7-7-5-5-5-5-5-5-5-5----|
C#|-0-------------------------------7-7-7-7-7-7-7-7-5-5-5-5-5-5-5-5----|

Pre Chorus
[ Tab from: http://www.guitaretab.com/g/goo-goo-dolls/22743.html ]
F |-0-0-0-0-0-0-0-0-0-0-0-0-0-0-0-0-0--0--0--0--0--0--0--0--0--0-------|
C#|-0-0-0-0-0-0-0-0-0-0-0-0-0-0-0-0-0--0--0--0--0--0--0--0--0--0-------|
G#|-0-0-0-0-0-0-0-0-0-0-0-0-0-0-0-0-0--0-0--0--0--0--0--0--0--0-------|
C#|-0-0-0-0-0-0-0-0-x-x-x-x-x-x-x-x-0--0--0--0--0-0--0--0--0--0-------|
G#|-2-2-2-2-2-2-2-2-9-9-9-9-9-9-9-9-12-12-12-1212-12-12-12-12-12------|
C#|-2-2-2-2-2-2-2-2-9-9-9-9-9-9-9-9-0--0--0--0--0--0--0--0--0--0-------|


F |-0-0-0-0-0-0-0-0-0-0-0-0-0-0-0-0-0-0-0-0-0-0-0-0-0-0-0-0-0----------|
C#|-0-0-0-0-0-0-0-0-0-0-0-0-0-0-0-0-0-0-0-0-0-0-0-0-0-0-0-0-0----------|
G#|-0-0-0-0-0-0-0-0-0-0-0-0-0-0-0-0-0-0-0-0-0-0-0-0-0-0-0-0-0----------|
C#|-0-0-0-0-0-0-0-0-x-x-x-x-x-x-x-x-x-x-x-x-xx-x-0-0-0-0-0-0----------|
G#|-2-2-2-2-2-2-2-2-9-9-9-9-9-9-9-9-7-7-7-77-7-7-5-5-5-5-5-5----------|
C#|-2-2-2-2-2-2-2-2-9-9-9-9-9-9-9-9-7-7-7-7-7-7-7-5-5-5-5-5-5----------|

Chorus- repeat 2x

F |-0--0--0--0--0--0--0--0--0--0--0--0--0--0--0--0--0-0-0-0-0-0-0-0----|
C#|-0--0--0--0--0--0--0--0--0--0--0--0--0--0--0--0--0-0-0-0-0-0-0-0----|
G#|-x--x--x--x--x--x--x--x--x--x--x--x--x--x--x--x--0-0-0-0-0-0-0-0----|
C#|-12-12-12-12-12-12-12-12-12-12-12-12-12-12-12-12x-x-x-x-x-x-x-x----|
G#|-12-12-12-12-12-12-12-12-12-12-12-12-12-12-12-12-9-9-9-9-9-9-9-9----|
C#|-0--0--0--0--0--0--0--0--11-11-11-11-11-11-11-11-9-9-9-9-9-9-9-9----|


F |-0-0-0-0-0-0-0------------------------------------------------------|
C#|-0-0-0-0-0-0-0------------------------------------------------------|
G#|-0-0-0-0-0-0-0------------------------------------------------------|
C#|-0-0-0-x-x-x-x------------------------------------------------------|
G#|-7-7-7-5-5-5-5------------------------------------------------------|
C#|-7-7-7-5-5-5-5------------------------------------------------------|

Bridge

F |-0--0--0--0--0--0--0-0-0-0-0-0--0--0--0--0--0--0--0--0--0--0--0--0--|
C#|-0--0--0--0--0--0--0-0-0-0-0-0--0--0--0--0--0--0--0--0--0--0--0--0--|
G#|-x--x--x--x--x--x--0-0-0-0-0-0--x--x--x--x--x--x--x--x--x--x-x--x--|
C#|-11-11-11-11-11-11-0-0-0-0-0-0--1212-12-12-12-12-12-12-12-12-12-12-|
G#|-9--9--9--9--9--9--5-5-5-5-5-5--12-12-12-12-12-12-12-12-12-12-12-12-|
C#|-0--0--0--0--0--0--5-5-5-5-5-5--0--0--0--0--0--0--11-11-11-11-11-11-|

F |-0--0--0--0--0--0--0-0-0-0-0-0--0-0-0-0-0-0-0-0-0-0-0-0-0-0-0-0-0-0-|
C#|-0--0--0--0--0--0--0-0-0-0-0-0--0-0-0-0-0-0-0-0-0-0-0-0-0-0-0-0-0-0-|
G#|-x--x--x--x--x--x--0-0-0-0-0-0--0-0-0-0-0-0-0-0-x-000-0-0-0-0-0-0-|
C#|-11-11-11-11-11-11-0-0-0-0-0-0--xx-x-x-x-x-x-x-x-x-x-0-0-0-0-0-0-0-|
G#|-9--9--9--9--9--9--5-5-5-5-5-5--9-9-9-9-9-9-7-7-7-7-7-5-5-5-5-5-5-5-|
C#|-0--0--0--0--0--0--5-5-5-5-5-5--9-9-9-9-9-9-7-7-7-7-7-5-5-5-5-5-5-5-|

F |-0-0-0-0-0-0--------------------------------------------------------|
C#|-0-0-0-0-0-0--------------------------------------------------------|
G#|-000-0-0-0--------------------------------------------------------|
C#|-0-0-0-0-0-0--------------------------------------------------------|
G#|-5-5-5-5-5-5--------------------------------------------------------|
C#|-5-5-5-5-5-5--------------------------------------------------------|


Chorus / Ending- repeat 6x


F |-0--0--0--0--0--0--0--0--0--0--0--0--0--0--0--0--0-0-0-0-0-0-0-0----|
C#|-0--0--0--0--0--0--0--0--0--0--0--0--0--0--0--0--0-0-0-0-0-0-0-0----|
G#|-x--x--x--x--x--x--x--x--x--x--x--x--x--x--x--x--0-0-0-0-0-0-0-0----|
C#|-12-12-12-12-12-12-12-12-12-12-12-12-12-12-12-12x-x-x-x-x-x-x-x----|
G#|-12-12-12-12-12-12-12-12-12-12-12-12-12-12-12-12-9-9-9-9-9-9-9-9----|
C#|-0--0--0--0--0--0--0--0--11-11-11-11-11-11-11-11-9-9-9-9-9-9-9-9----|


F |-0-0-0-0-0-0-0-0----------------------------------------------------|
C#|-0-0-0-0-0-0-0-0----------------------------------------------------|
G#|-0-0-0-0-0-0-0-5----------------------------------------------------|
C#|-0-0-0-x-x-x-x-7----------------------------------------------------|
G#|-7-7-7-5-5-5-5-0----------------------------------------------------|
C#|-7-7-7-5-5-5-5-0----------------------------------------------------|

=============================================================================
| /  slide up
| \  slide down
| h  hammer-on
| p  pull-off
| ~  vibrato
| +  harmonic
| x  Mute note
Related for Here Is Gone tab