Song name
# A B C D E F G H I J K L M N O P Q R S T U V W X Y Z

Goo Goo Dolls - Think About Me tab

Song Title: Think About Me
Artist: Goo Goo Dolls
Album: Gutterflower
Tabbed by Lance (lance_mar@hotmail.com)

I figured this one out kind of by accident. I was trying to find the
tuning for BIG MACHINE but ended up finding the tuning for this song
instead. I'm not very good at guitar solos so its not included with
this tab. The rest of the song sounds good though. Enjoy!

Tuning (low to high): D A D G D D
(Same tuning as SLIDE but one-half step lower)

Intro (play 4x)
D----0----0---------------------------------------------
D----0----0---------------------------------------------
G----0----0---------------------------------------------
D----0----5---------------------------------------------
A----5----3---------------------------------------------
D----5----X---------------------------------------------

Verse 1 (play 2x)
D----0----0----0----|----0----0----0--------------------
D----0----0----0----|----0----0----0--------------------
G----0----0----0----|----0----0----0--------------------
D----7----X----5----|----X----7----5--------------------
A----5----2----3----|----2----5----3--------------------
D----X----2----X----|----2----X----X--------------------

Pre-Chorus (play 1x)
D----0----0----|----0----0----0-------------------------
D----0----0----|----0----0----0-------------------------
G----0----0----|----0----0----0-------------------------
D----X----X----|----X----X----5-------------------------
A----2----9----|----2----7----3-------------------------
D----2----9----|----2----7----X-------------------------

Chorus (play 2x)

D----0----0---------------------------------------------
D----0----0---------------------------------------------
G----0----0---------------------------------------------
D----0----5---------------------------------------------
A----5----3---------------------------------------------
D----5----X---------------------------------------------

Verse 2 (play 2x)

Pre-Chorus (play 1x)

Chorus (play 2x, end chorus on 550000)

Bridge (played under the solo, play 2x, end bridge on 550000)
D----0----0----0----0--0--------------------------------
D----0----0----0----0--0--------------------------------
G----0----0----0----0--0--------------------------------
D----X----5----X----7--5--------------------------------
A----2----3----2----5--3--------------------------------
D----2----X----2----X--X--------------------------------

Pre-Chorus (play 1x then play variation below)

Variation
D----0----0----0----0-----------------------------------
D----0----0----0----0-----------------------------------
G----0----0----0----0-----------------------------------
D----X----X----X----5-----------------------------------
A----2----9----7----3-----------------------------------
D----2----9----7----X-----------------------------------

Out-Chorus (play 3x, end song on 550000)
D----0----0---------------------------------------------
D----0----0---------------------------------------------
G----0----0---------------------------------------------
D----0----5---------------------------------------------
A----5----3---------------------------------------------
D----5----X---------------------------------------------
Tap to rate this tab
# A B C D E F G H I J K L M N O P Q R S T U V W X Y Z