Song name
# A B C D E F G H I J K L M N O P Q R S T U V W X Y Z

Goo Goo Dolls - Think About Me tab

Think About Me (Goo Goo Dolls)
Album: Gutterflower

I looked at several other of the tabs, but none of them were right. I made this tab 
watching the Buffalo DVD, so it's (mostly) right.

Tuning (from low to high) is C-G-D-G-D-D

I'm not going to tab out the strum pattern, but it's not too difficult.

Intro:

D|-----0-0-0---0-|
D|-----0-0-0---0-|
G|-----0-0-0-0-0-|
D|-4h5---5-4-0-5-| x4
G|-0-----0-0-0-5-|
C|-------------0-|

Verse:

D|-0-0-00-0-0-00-|
D|-0-0-00-0-0-00-|
G|-0-0-00-0-0-00-|
D|-0-0-55-0-0-00-| x2
G|-2-4-55-4-2-00-|
C|-2-4-00-4-2-00-|

Chorus:
D|-0-0-0-0-0-|
D|-0-0-0-0-0-|
G|-0-0-0-0-0-|
D|-0-4-0-2-5-|
G|-4-4-4-2-5-|
C|-4---4---0-|

Bridge:
D|-0---------------0-------------------|
D|-0---------------0-------------------|
G|-0---------------0-------------------|
D|-5---------------4-------------0---0-|
G|-0---------------0-------------0---0-|
C|-----------------------------------0-|
   All you want is something I can't be

D|-0-0-0-0-0-|
D|-0-0-0-0-0-|
G|-0-0-0-0-0-|
D|-0-5-0-7-5-| x2
G|-4-5-4-7-5-|
C|-4---4-----|

D|-0-----------------0------------------|
D|-0-----------------0------------------|
G|-0-----------------0------------------|
D|-5-----------------4-----------0---0--|
G|-0-----------------0-----------0---0--|
C|-----------------------------------0--|
   All you want from me is what you need

So the order is:
Intro
Verse
Chorus
Intro
Verse
Chorus
Bridge
Chorus
Intro

Again, I didn't tab out the strumming pattern, figure it out on your own! These are the 
chords though.
Tap to rate this tab
# A B C D E F G H I J K L M N O P Q R S T U V W X Y Z