Song name
# A B C D E F G H I J K L M N O P Q R S T U V W X Y Z

Goo Goo Dolls - Home tab

I figured this all out by ear because I wanted to record it. It's pretty easy in
my opinion. At least it's not in some crazy tuning :p


Intro/verse:

guitar 1 (clean):
e------------------------------|
b------------------------------|
g------------6-8---------------|      repeat until pre chorus kicks in
d----6-6-9-6-----9-6-----------|
a------------------------------|
E------------------------------|


Pre chorus:

guitar 1 (overdrive):


e--------------------------|
b--------------------------|   play twice
g--------------------------|
d--4-4-4-4-4-4-2-2-2-2-2-2-|
a--4-4-4-4-4-4-2-2-2-2-2-2-|
E--2-2-2-2-2-2-0-0-0-0-0-0-|


guitar 2 (overdrive):

e---------------------------------|
b---------------------------------|
g--6--6--6--6--6--6--6--8--4------|
d--x--x--x--x--x--x--x--x--x------|     play twice
a--4--4--4--4--4--4--4--6--2------|
E---------------------------------|


Chorus:

guitars 1 and 2 (overdrive):

e----------------------------------|
b----------------------------------|
g--4-4-4-4-4-----------------------|
d--4-4-4-4-4-2-2-2-2-2-4-4-4-4-4-4-| play 4 times
a--2-2-2-2-2-2-2-2-2-2-4-4-4-4-4-4-|
E------------0-0-0-0-0-2-2-2-2-2-2-|


guitar 3 (overdrive):

e-----------------------------------------------|
b-----------------------------------------------|
g--16-16-16-16-16-16-16-16-16-15-15-15-15-15-15-|
d---x--x--x--x--x--x--x--x--x--x--x--x--x--x--x-|    play 4 times
a--14-14-14-14-14-14-14-14-14-13-13-13-13-13-13-|
E-----------------------------------------------|

verse:
piano plays opening lick

guitar 1 (overdrive):

e---------------------------------------|
b---------------------------------------|
g---------------------4/6-6--4-4/6-6--8-|
d--6-6-6--6--6-6-6--6-x-x-x--x-x-x-x--x-|  play until pre chorus
a--x-x-x--x--x-x-x--x-2/4-4--2-2/4-4--6-|
E--4-4-4--4--4-4-4--4-------------------|

i'll add the bridge when i get the whole thing figured out. it shouldn't be long
Tap to rate this tab
 
# A B C D E F G H I J K L M N O P Q R S T U V W X Y Z