Song name
# A B C D E F G H I J K L M N O P Q R S T U V W X Y Z

Goo Goo Dolls - Here Is Gone tab

Holy Crap! i have been looking at so many wrong tabs
for the Gutterflower songs by johnny. So Im gonna really help those
who want to play them the way johnny plays them. Here it
is 100% correct. Awesome CD...Buy it! They are way underated.

Correct Tuning:
E=F
B=C#
G=G#
D=C#
A=G#
E=C#

Intro/Verse:
      --0-0-0-0-0-0-0--0-0-0-0-0-0-0--0-0-0-0-0-0-0--0-0-0-0-0-0-0-
      --0-0-0-0-0-0-0--0-0-0-0-0-0-0--0-0-0-0-0-0-0--0-0-0-0-0-0-0-
      --5/7-7-7/5-5-5--5/7-7-7/5-5-5--0-0-0-0-0-0-0--0-0-0-0-0-0-0-
      --7/9-9-9/7-7-7--7/9-9-9/7-7-7--7-7-7-7-7-7-7--5-5-5-5-5-5-5-
      --------------------------------7-7-7-7-7-7-7--5-5-5-5-5-5-5-
      -------------------------------------------------------------

Pre-Chorus:
      --0-0-0-0-0-0-0-0-0-0-0-0-0-0-0--0--0--0--0--0--0--0--0--0--0--0--0--0-
      --0-0-0-0-0-0-0-0-0-0-0-0-0-0-0--0--0--0--0--0--0--0--0--0--0--0--0--0-
      --0-0-0-0-0-0-0-0-0-0-0-0-0-0-0--0--0--0--0--0--0--0--0--0--0--0--0--0-
      --0-0-0-0-0-0-0-0-0-0-0-0-0-0-0--0--0--0--0--0--0--0--0--0--0--0--0--0-
      --2-2-2-2-2-2-2/9-9-9-9-9-9-9/12-12-12-12-12-12-12-12-12-12-12-12-12-12
      --2-2-2-2-2-2-2/9-9-9-9-9-9-9/12-12-12-12-12-12-12-12-12-12-12-12-12-12

      --0-0-0-0-0-0-0-0-0-0-0-0-0-0-0-0-0-0-0-0-0-0-0-0-0-0-0-0-
      --0-0-0-0-0-0-0-0-0-0-0-0-0-0-0-0-0-0-0-0-0-0-0-0-0-0-0-0-
      --0-0-0-0-0-0-0-0-0-0-0-0-0-0-0-0-0-0-0-0-0-0-0-0-0-0-0-0-
      --0-0-0-0-0-0-0-0-0-0-0-0-0-0-0-0-0-0-0-0-0-0-0-0-0-0-0-0-
      --2-2-2-2-2-2-2/9-9-9-9-9-9-9/7-7-7-7-7-7-7/5-5-5-5-5-5-5-
      --2-2-2-2-2-2-2/9-9-9-9-9-9-9/7-7-7-7-7-7-7/5-5-5-5-5-5-5-

Chorus:
      --0-0-0-0-0-0-0-0-0-0-0-0-0-0-0-0-0-0-0-0-0-0-0-0-0-0-0-0-0-
      --0-0-0-0-0-0-0-0-0-0-0-0-0-0-0-0-0-0-0-0-0-0-0-0-0-0-0-0-0-
      --0-0-0-0-0-0-0-0-0-0-0-0-0-0-0-0-0-0-0-0-0-0-0-0-0-0-0-0-0-
      --7-7-7-7-7-7-7-7-7-7-7-7-7-7-4-4-4-4-4-4-4-2-2-2-0-0-0-0-0-
      --5-5-5-5-5-5-5-4-4-4-4-4-4-4-2-2-2-2-2-2-2-0-0-0-5-5-5-5-5-
      --------------------------------------------------5-5-5-5-5-

Bridge:
      --0-0-0-0-0-0-0-0-0-0-0-0-0-0-0-0-0-0-0-0-0-0-0-0-0-0-0-0-
      --0-0-0-0-0-0-0-0-0-0-0-0-0-0-0-0-0-0-0-0-0-0-0-0-0-0-0-0-
      --4-4-4-4-4-4-4-0-0-0-0-0-0-0-0-0-0-0-0-0-0-0-0-0-0-0-0-0-
      --4-4-4-4-4-4-4-0-0-0-0-0-0-0-7-7-7-7-7-7-7-7-7-7-7-7-7-7-
      --2-2-2-2-2-2-2-5-5-5-5-5-5-5-5-5-5-5-5-5-5-4-4-4-4-4-4-4-
      ----------------5-5-5-5-5-5-5-----------------------------

      --0-0-0-0-0-0-0-0-0-0-0-0-0-0-0-0-0-0-0-0-0-0-0-0-0-0-0-0-
      --0-0-0-0-0-0-0-0-0-0-0-0-0-0-0-0-0-0-0-0-0-0-0-0-0-0-0-0-
      --4-4-4-4-4-4-4-0-0-0-0-0-0-0-0-0-0-0-0-0-0-0-0-0-0-0-0-0-
      --4-4-4-4-4-4-4-0-0-0-0-0-0-0-7-7-7-7-7-7-7-4-4-4-4-2-2-2-
      --2-2-2-2-2-2-2-5-5-5-5-5-5-5-5-5-5-4-4-4-4-2-2-2-2-0-0-0-
      ----------------5-5-5-5-5-5-5-----------------------------

      --0-0-0-0-0-0-0-0-0-0-0-0-0-0-0-0-
      --0-0-0-0-0-0-0-0-0-0-0-0-0-0-0-0-
      --0-0-0-0-0-0-0-0-0-0-0-0-0-0-0-0-
      --0-0-0-0-0-0-0-0-0-0-0-0-0-0-0-0-
      --5-5-5-5-5-5-5-5-5-5-5-5-5-5-5-5-
      --5-5-5-5-5-5-5-5-5-5-5-5-5-5-5-5-

      That's it. It sounds really good. What a great song.
Tap to rate this tab
# A B C D E F G H I J K L M N O P Q R S T U V W X Y Z