Song name
# A B C D E F G H I J K L M N O P Q R S T U V W X Y Z

Goo Goo Dolls - Sympathy tab

Hopefully u have checked out my Here Is Gone tab if
u are a fan of theirs and wanted to learn the correct way to 
play it like johnny does. So ignore the other tabs
for Sympathy, this is sooo the right way to play it. 
Here it is, another awesome song by the Johnny. All three 
of them r really amazing musicians.


Correct Tuning:

(capo 2nd fret)
E=F#
B=C#
G=F#
D=C#
A=G#
E=C#

(all relative to capo)
Intro/Verse:
      ------0-0---0-0-0-0-0-0-0-0-0---0-0---0-0-0-0-0-0-0-0-0-
      ------0-0---0-0-0-0-0-0-0-0-0---0-0---0-0-0-0-0-0-0-0-0-
      ----0-0-0-0-0-0-0-0-0-0-0-0-0-0-0-0-0-0-0-0-0-0-0-0-0-0-
      --0-5-5-5-5-5-5-5-5-5-0-0-0-0-5-5-5-5-5-5-5-5-5-0-0-0-0-
      --0-3-3-3-2-2-2-0-0-0-5-5-5-5-3-3-3-2-2-2-0-0-0-5-5-5-5-
      ----------------------5-5-5-5-------------------5-5-5-5-

Variation:
      ----0-0-0-0-0-0-0-0-0-0-0---0-0-0-0-0-0-0-0-0-0-0-
      --0-0-0-0-0-0-0-0-0-0-0-0---0-0-0-0-0-0-0-0-0-0-0-
      --0-0-0-0-0-0-0-0-0-0-0-0-0-0-0-0-0-0-0-0-0-0-0-0-
      --0-0-0-0-0-0-0-0-0-0-0-0-5-5-5-5-5-5-5-5-5-5-5-5-
      --5-5-5-5-5-5-5-5-5-5-5-5-3-3-3-3-3-3-3-3-3-3-3-3-
      --5-5-5-5-5-5-4-4-4-4-4-4-------------------------


      ----0-0-0-0-0-0-0-0-0-0-0---0-0-0-0-0-0-0-0-0-0-0-
      --0-0-0-0-0-0-0-0-0-0-0-0---0-0-0-0-0-0-0-0-0-0-0-
      --0-0-0-0-0-0-0-0-0-0-0-0-0-0-0-0-0-0-0-0-0-0-0-0-
      --0-0-0-0-0-0-0-0-0-0-0-0-5-5-5-5-5-5-5-5-5-5-5-5-
      --5-5-5-5-5-5-5-5-5-5-5-5-3-3-3-3-3-3-3-3-3-3-3-3-
      --5-5-5-5-5-5-4-4-4-4-4-4-------------------------


      ----0-0-0-0-0-0-0-0-0-0-0-0-0-0-0-0-0-0-0-0-0-0-0-0-
      --0-0-0-0-0-0-0-0-0-0-0-0-0-0-0-0-0-0-0-0-0-0-0-0-0-
      --0-0-0-0-0-0-0-0-0-0-0-0-0-0-0-0-0-0-0-0-0-0-0-0-0-
      --0-0-0-0-0-0-0-0-0-0-0-0-0-0-0-0-0-0-5-5-5-5-5-5-5-
      --5-5-5-5-5-5-5-5-5-5-5-5-2-2-2-2-2-2-3-3-3-3-3-3-3-
      --5-5-5-5-5-5-4-4-4-4-4-4-2-2-2-2-2-2-0-0-0-0-0-0-0-

      ----0-0-0-0-0-0-0-0-0-0-0---0-0-0-0-0-0-0-0-0-0-0-
      ----0-0-0-0-0-0-0-0-0-0-0---0-0-0-0-0-0-0-0-0-0-0-
      --0-0-0-0-0-0-0-0-0-0-0-0-0-0-0-0-0-0-0-0-0-0-0-0-
      --0-0-0-0-0-5-5-5-5-5-5-5-0-0-0-0-0-7-7-7-5-5-5-5-
      --2-2-2-2-2-3-3-3-3-3-3-3-2-2-2-2-2-5-5-5-3-3-3-3-
      --2-2-2-2-2---------------2-2-2-2-2---------------

      ----0-0-0-0-0-0-0-0-0-0-0-0-0-0-0-0-0-----0-0-0---------
      ----0-0-0-0-0-0-0-0-0-0-0-0-0-0-0-0-0-----0-0-0---------
      --0-0-0-0-0-0-0-0-0-0-0-0-0-0-0-0-0-0-----7-7-7---------
      --0-0-0-0-0-5-5-5-5-5-5-5/7-7-7-7-7-7-7/9-9-9-9-9-7-5-0-
      --2-2-2-2-2-3-3-3-3-3-3-3/5-5-5-5-5-5-----------------0-
      --2-2-2-2-2---------------------------------------------

Bridge:
      ------0-----------0-----------0-----------0-------
      ------0-0---0-----0-0---0-----0-0---0-----0-0---0-
      ----0-----0-----0-----0-----0-----0-----0-----0---
      ----0-----0-----0-----0-----0-----0-----0-----0---
      --2-----------5-----------5-----------0-----------
      --2-----------4-----------5-----------0-----------

      ------0-----------0-----------0---------0-0---0-0---0-0---0-0-
      ------0-0---0-----0-0---0-----0-0---0---0-0-0-0-0-0-0-0-0-0-0-
      ----0-----0-----0-----0-----0-----0---0-0-0-0-0-0-0-0-0-0-0-0-
      ----0-----0-----0-----0-----0-----0---4-4-4-4-4-4-4-4-4-4-4-4-
      --2-----------5-----------5-----------2-2-2-2-2-2-2-2-2-2-2-2-
      --2-----------4-----------5-----------------------------------

      ------------------------------------------0-0-0---0-0-----0-0-0---------
      ----0-0-0-0-0---0-0-0-0-0---0-0-0-0-0-----0-0-0---0-0-----0-0-0---------
      --0-0-0-0-0-0-0-0-0-0-0-0-0-0-0-0-0-0-0-0-0-0-0-0-0-0-----7-7-7---------
      --5-5-5-5-5-5-4-4-4-4-4-4-5-5-5-5-5-5-5/7-7-7-7-7-7-7-7/9-9-9-9-9-7-5-0-
      --3-3-3-3-3-3-2-2-2-2-2-2-3-3-3-3-3-3-3/5-5-5-5-5-5-5-----------------0-
      ------------------------------------------------------------------------

That's it. 100% right. Have Fun!


Tap to rate this tab
# A B C D E F G H I J K L M N O P Q R S T U V W X Y Z