Song name
# A B C D E F G H I J K L M N O P Q R S T U V W X Y Z

Goo Goo Dolls - Slide tab

I am a huge GGD fan, and I can play pretty much every song off of Dizzy Up The Girl and Gutterflower, but I learned a version of this song in standard tuning a year or so ago and have been playing it that way ever since. Finally, after seeing them play it live in concert and studying their performance of it on VH1 Storytellers, I was able to figure out the correct alternate tuning and pretty much every little note Johnny plays on this track. Everywhere I’ve looked, I find TONS of tabs for this song, but they all have been in standard… and Johnny obviously doesn’t write to many songs that way. This is the way they really play it… I figure I should share the wealth so I tabbed it out. L8ter. 


Correct Tuning:

(capo 1st fret for album version)
(capo 2nd fret for live version)
E = F
B = C
G = F
D = C
A = G
E = C

(all relative to capo)
Intro:
	-----------------------------------------------------------
	--------0----------0-----0-------------0-------------------
	-----------0----------0-----0-------------0----------------
	-----5------------------------------5-------------0-----0--
	--7-------------5----------------3-------------------------
	-----------------------------------------------5-----4-----

	
	-----------------------------------------------------------
	--------0----------0-----0-------------0-------------------
	-----------0----------0-----0-------------0----------------
	-----5------------------------------5-------------0-----0--
	--7-------------5----------------3-------------------------
	-----------------------------------------------5-----4-----
	

Verse:
	--0-0-0-0-0-0-0-0-0-0-0-0-0-0-0-0-0-0-0-0-0-0-0-0-0-0-0-0-0-0-0--
	--0-0-0-0-0-0-0-0-0-0-0-0-0-0-0-0-0-0-0-0-0-0-0-0-0-0-0-0-0-0-0--
	--0-0-0-0-0-0-0-0-0-0-0-0-0-0-0-0-0-0-0-0-0-0-0-0-0-0-0-0-0-0-0--
	--0-0-0-0-0-0-0-0-0-0-7-7-7-7-7-7-7-7-7-7-7-5-5-5-5-5-5-5-5-5-5--
	--2-2-2-2-2-2-2-2-2-2-5-5-5-5-5-5-5-5-5-5-5-3-3-3-3-3-3-3-3-3-3--
	--2-2-2-2-2-2-2-2-2-2--------------------------------------------


	--0-0-0-0-0-0-0-0-0-0-0-0-0-0-0-0-0-0-0-0-0-0-0-0-0-0-0-0-0-0-0--
	--0-0-0-0-0-0-0-0-0-0-0-0-0-0-0-0-0-0-0-0-0-0-0-0-0-0-0-0-0-0-0--
	--0-0-0-0-0-0-0-0-0-0-0-0-0-0-0-0-0-0-0-0-0-0-0-0-0-0-0-0-0-0-0--
	--0-0-0-0-0-0-0-0-0-0-7-7-7-7-7-7-7-7-7-7-7-5-5-5-5-5-5-5-5-5-5--
	--2-2-2-2-2-2-2-2-2-2-5-5-5-5-5-5-5-5-5-5-5-3-3-3-3-3-3-3-3-3-3--
	--2-2-2-2-2-2-2-2-2-2--------------------------------------------


Break:
	-----------------------------	.. I wanna wake up where you are ..
	--0-0-\-0-\-0-0-0-\-0-\-0-0--
	--0-0-\-0-\-0-0-0-\-0-\-0-0--
	--3-3-\-4-\-5-5-5-\-4-\-3-3--
	--3-3-\-4-\-5-5-5-\-4-\-3-3--
	-----------------------------


	-----------------------------	.. I won’t say anything at all ..
	--0-0-\-0-\-0-0-0-\-0-\-0-0--
	--0-0-\-0-\-0-0-0-\-0-\-0-0--
	--3-3-\-4-\-5-5-5-\-4-\-3-3--
	--3-3-\-4-\-5-5-5-\-4-\-3-3--
	-----------------------------



Chorus:
	--0-0-0-0-0-0-0-0-0-0-0-0-0-0-0-0-0-0-0-0-0-0-0-0-0-0-0-0-0-0-0--
	--0-0-0-0-0-0-0-0-0-0-0-0-0-0-0-0-0-0-0-0-0-0-0-0-0-0-0-0-0-0-0--
	--0-0-0-0-0-0-0-0-0-0-0-0-0-0-0-0-0-0-0-0-0-0-0-0-0-0-0-0-0-0-0--
	--5-5-5-0-0-0-0-0-5-5-5-0-0-0-0-0-5-5-5-0-0-0-0-0-7-7-7-7-7-7-7--
	--3-3-3-5-5-5-5-5-3-3-3-5-5-5-5-5-3-3-3-5-5-5-5-5-5-5-5-5-5-5-5--
	--------5-5-5-5-5-------5-5-5-5-5-------5-5-5-5-5----------------


	--0-0-0-0-0-0-0-0-0-0-0-0-0-0-0-0-0-0-0-0-0-0-0-0-0-0-0-0-0-0-0--
	--0-0-0-0-0-0-0-0-0-0-0-0-0-0-0-0-0-0-0-0-0-0-0-0-0-0-0-0-0-0-0--
	--0-0-0-0-0-0-0-0-0-0-0-0-0-0-0-0-0-0-0-0-0-0-0-0-0-0-0-0-0-0-0--
	--5-5-5-0-0-0-0-0-5-5-5-0-0-0-0-0-5-5-5-0-0-0-0-0-7-7-7-7-7-7-7--
	--3-3-3-5-5-5-5-5-3-3-3-5-5-5-5-5-3-3-3-5-5-5-5-5-5-5-5-5-5-5-5--
	--------5-5-5-5-5-------5-5-5-5-5-------5-5-5-5-5----------------


Outro:
	-----------------------------------------------------------
	--------0----------0-----0-------------0-------------------
	-----------0----------0-----0-------------0----------------
	-----5------------------------------5-------------0-----0--
	--7-------------5----------------3-------------------------
	-----------------------------------------------5-----4-----

	
	-----------------------------------------------0--
	--------0----------0-----0-------------0-------0--
	-----------0----------0-----0------------------0--
	-----5------------------------------5----------0--
	--7-------------5----------------3-------------5--
	-----------------------------------------------5--




"...everything's made to be broken..."

                             - Johnny Rzeznik,  "IRIS"
Tap to rate this tab
 
# A B C D E F G H I J K L M N O P Q R S T U V W X Y Z