Song name
# A B C D E F G H I J K L M N O P Q R S T U V W X Y Z

Goo Goo Dolls - Slide tab

Tristan Hoogland
drummer180@hotmail.com
http://ussjlegend.cjb.net

Goo Goo Dolls - Slide

Yes here it is the FULL VERSION of slide.  Meaning real version chords
and everything yes FULL 100% real transcribition, chords look exactly 
the same as the video clips and sounds exactly how its suppose to sound!
So yeh have a look at this Slide tab by the Goo Goo Dolls.

Key:
/ = slide
~ - vibrate

Gtr 1 & 2 Tunning: D#,G#,D#,G#,G#,D#

Chords Used :
Fmin7        (042000)
D#5sus4      (01212000)
D#5sus4      (077000)
D#7sus4      (055000)
G#maj7       (044000)
G#5*         (000000)             *Chord symbols reflect implied
tonality

        Intro
           Moderately Slow T. = 51
Gtr.1 (acous. ) Gtr.2 (elec. clean)
Repeated Twice

D#|----------0--------------0------------------0-----------0--------0-|
G#|-------0-----0-------0-----0------------0------0-------------------|
G#|-------------------------------------------------------------------|
D#|---2------------0--------------0-----------------------------------|
G#|------------------------------------5------------------------------|
D#|---------------------------------------------------5---------4-----|

        Verse

Fmin7                   D#sus4
Could you whisper in my ear
                  D#7sus4
The things you wanna feel
I'll give you anything - To feel it comin'
Fmin7                   D#sus4
Do you wake up on your own
                        D#7sus4
And wonder where you are
You live with all your faults

Pre-Chorus

D#|---------0-------0------|
G#|-------0---0-----0------|
G#|-----------------0------|
D#|-----2--------0--5------|
G#|-----------------5------|
D#|-----------------X------|   (riff A)

I wanna wake up where you are
(repeat riff A)

I won't say anything at all

        Chorus

                    D#7sus4 | G#5* | D#7sus4 | G#5* | D#7sus4 | G#5* |
D#sus4
So why don't you slide
(2nd time to coda)

D#|-------------------5----|
G#|------4-/-5-/-4---------|
G#|------------------------|
D#|------------------------|
G#|------------------------|
D#|------------------------|   (riff B) (Gtr.2 OD/Wah)

                 D#7sus4 | G#5* | D#7sus4 | G#5* | D#7sus4 | G#5* |
D#5sus4
Yeah we're gonna let it, slide

        Verse

Fmin7                       D#sus4
Don't you love the life you killed
                      D#7sus4
The priest is on the phone
                     D#7sus4
Your father hit the wall
Your ma disowned you

Fmin7                    D#sus4
Don't suppose I'll ever know
                        D#7sus4
What it means to be a man
                       D#7sus4
Something I can't change
I'll live around it

        Repeat Pre-Chorus - Chorus

        Coda

D#7sus4           G#5*
And I'll do anything you ever
D#7sus4           G#5*
Dreamed to be complete
D#7sus4          G#5*             D#5sus4
Little pieces of the nothing that fall
Fmin7                    D#sus4
May put your arms around me
D#7sus4                   G#maj7
What you feel is what you are
D#7sus4                   D#sus4
And what you are is beautiful
Fmin7                   D#sus4
May do you wanna get married
      D#7sus4
Or run away

(repeat riff A)

        Outro

D#7sus4   G#5*
And I'll do anything you ever
D#7sus4    G#5*
Dreamed to be complete
D#7sus4     G#5*                       D#5sus4
Little pieces of the nothing that fall
                     D#7sus4 | G#5* | D#7sus4 | G#5*
Oh Oh Just  slide -
                     D#7sus4 | G#5*
Why don't you slide to my room
 D#sus4                                                      
Just slide to my room ; where I will runaway runaway runaway ..

(repeat intro riff)

Gtr.1 (elec. dist.)
D#|------------------------|
G#|--11b---11r---11---9~~--|
G#|------------------------|
D#|------------------------|
G#|------------------------|
D#|------------------------|

And there you have it slide by the goo goo dolls.
Tap to rate this tab
 
# A B C D E F G H I J K L M N O P Q R S T U V W X Y Z