Song name
# A B C D E F G H I J K L M N O P Q R S T U V W X Y Z

Goo Goo Dolls - Acoustic #3 tab

Tuning: E.A.D.G.B.e

         Rift 1a                      Rift 1b
------------------------     ------------------------
------------------------     ------------------------
--------0-------0-------     -------0-------0--------
--------------0---0-----     -------------0---0------
-----2-----3--------2---     ----2-----3--------2/5--
---3--------------------     ---3--------------------
         
                       Rift 1c
               ------------------------
               ------------------------
               --------0-------0-------
               --------------0---0-0---
               -----2-----3------------
               ---3--------------------

         Rift 2
------------------------
------------------------
-----------------0------
--------0------0---0----
-----2-----3---------2--
---3--------------------

         Rift 3
------------------------
------------------------
------0------0----------
----7------5---5-0------
--5------7--------------
------------------------

         Rift 4a                      Rift 4b
------------------------     ------------------------
------------------------     ------------------------
------0------0----------     ------0------0----------
----5-----------0-------     ----5-----------0-------
--3--------5------0-----     --3--------5------2-----
---------3--------------     ---------3--------------






Intro:     1a X3 - 2 

Verse 1:   2 X3 - 1a - 2 X3 - 1b

Chorus:    3 - 4a - 3 - 4a - 3 - 4b X3

Interlude: 1a X2

Verse 2:   1c - 1a X4 - 1c - 1a - 1b

Verse 3:   1a X7 - 1b

Outro:     1a - 1c (Strum 1 G chord)

Verse 1
They painted up your secrets 
With the lies they told you 
And the least they ever gave you 
Was the most you ever knew 

Chorus
And I wonder where these dreams go 
When the world getsin your way 
What's the point in all this screaming 
No one's listening anyway 

Verse 2
Your voice is small and fading 
And you hide in here unknown
 And your mother loves your father 
'Cause she's got nowhere to go 

Chorus
And she wonders where these dreams go
 'Cause the world for in her way 
What's the point ever trying
 Nothing's changing anyway 

Verse 3
They pres their lips against you 
And you love the lies that they say 
And I tried so hard to reach you 
But you're falling anyway 

Chorus
And you know I see right through you 
'Cause the world gets in your way 
What's the point in all this screaming 
You're not listening anyway
Tap to rate this tab
# A B C D E F G H I J K L M N O P Q R S T U V W X Y Z