Song name
# A B C D E F G H I J K L M N O P Q R S T U V W X Y Z

Goo Goo Dolls - Not Broken tab

off of the new cd, "Something for the Rest of Us". its awesome, go buy it :D

Standard Tuning



INTRO/VERSE:

e|------------------------------------------------------|
B|------------------------------------------------------|
G|----9----9----9----9----8----8----8----8--------------|
D|----9----9----9----9----9----9----9----9--------------|
A|-7----7----7----7----7----7-----7-----7---------------|
E|------------------------------------------------------|

e|-------------------------------------------------------------|
B|----10----10-----10-----9-----9-----9-----9-----9------------|
G|----9------9------9-----9-----9-----9-----9-----9------------|
D|-7-----7------7------7------7-----7-----7--------------------|
A|-------------------------------------------------------------|
E|-------------------------------------------------------------|


CHORUS:

e|--0-----0-----0------0-----------|
B|--0-----0-----0------0-----------|
G|--9-----8-----2------1-----------|(2)
D|--9-----9-----2------2-----------|
A|--7-----7-----0------2-----------|
E|---------------------------------|

Verse, chorus (4x)


BRIDGE:

e|-----------0----0---------|-----------------------------------0-----|
B|-----------0----0---------|-----------------------------------0-----|
G|-3----6----9----8---(3x)--|-----------9-xx-9-xx-9-x-9-xx------9-----|
D|-4----7----9----9---------|--4---7----9-xx-9-xx-9-x-9-xx-...--9-----|
A|-4----7----7----6---------|--4---7----7-xx-7-xx-7-x-7-xx------7-----|
E|-2----5-------------------|--2---5----------------------------------|
Tap to rate this tab
 
# A B C D E F G H I J K L M N O P Q R S T U V W X Y Z