Song name
# A B C D E F G H I J K L M N O P Q R S T U V W X Y Z

Goo Goo Dolls - Better Days tab

----------------------------------------------------------------------------
			     	 BETTER DAYS  Goo Goo Dolls
----------------------------------------------------------------------------Tabbed by: 
Rhodes
Email: shortyrhodes@yahoo.com

Tuning: EADGBe

	Intro/Verse
e|-10-10-9-9-5-5-|-10-10-9-9-5-5-|-10-10-9-9-5-5-|---------------|
B|---------------|---------------|---------------|-10-10-8-8-7-7-|
G|---------------|---------------|---------------|---------------|
D|---------------|---------------|---------------|---------------|
A|---------------|---------------|---------------|---------------|
E|---------------|---------------|---------------|---------------|

	Chorus			  (3x)
e|---------------------------------||-----9-92-2-2-|
B|---------------------------------||---------3-3-3-|
G|---------------------------------||-7-7-----2-2-2-|
D|-5-5-5-5-5-5-5-5-7-7-7-7-7-7-7-7-||---------0-0-0-|
A|-5-5-5-5-5-5-5-5-7-7-7-7-7-7-7-7-||---------------|
E|-3-3-3-3-3-3-3-3-5-5-5-5-5-5-5-5-||---------------|

Interlude
                             D               G
                        2x                                  2x
e|-------------------------||----------------------------------||
B|-------------------------||----------------------------------||
G|-6-7--6-7-9--6-7--6-7-9--||-7-7-7-7-7-7-7-7------------------||
D|-------------------------||-7-7-7-7-7-7-7-7-5-5-5-5-5-5-5-5--||
A|-------------------------||-5-5-5-5-5-5-5-5-5-5-5-5-5-5-5-5--||
E|-------------------------||-----------------3-3-3-3-3-3-3-3--||
Tap to rate this tab
 
# A B C D E F G H I J K L M N O P Q R S T U V W X Y Z