Song name
# A B C D E F G H I J K L M N O P Q R S T U V W X Y Z

Goo Goo Dolls - Slide chords

Highlighted       Show chord diagrams
   Em : 022033
    D : xx0232
   D' : xx0233
    C : x32010
Cadd9 : x32033
    G : 320033


INTRO:  

E|-------------------------------------------------|
B|---------3----------3------------3---------3-----|
G|------0---0------2----0-------0----0------0---0--|
D|---2----------0--------0-------------------------|   x 2
A|---------------------------3---------------------|
E|----------------------------------------3---2----|

VERSE:


Em                     D
Could you whisper in my ear
                      Cadd9  
The things you wanna feel
                  G
I'll give you anything to feel it comin'
Em                   D
Do you wake up on your own
                    Cadd9 
And wonder where you are
                         C  
You live with all your faults

PRE-CHORUS:

E|----------------|
B|-----3----------|
G|-------0---0----|
D|---4-----4------|   
A|-5--------------|
E|----------------|

I wanna wake up where you are

E|----------------|
B|-----3----------|
G|-------0---0----|
D|---4-----4------|   
A|-5--------------|
E|----------------|

I won't say anything at all

Chorus:

                   Cadd9  G Cadd9  G Cadd9  G  D D' D
So why don't you slide 
                   Cadd9  G Cadd9  G Cadd9  G  D D' D
Yeah we're gonna let it slide 

VERSE 2:

Em                     D
Don't you love the life you killed 
                      Cadd9  
The priest is on the phone 
                  G
Your father hit the wall 

Your mother disowned you 
Em                       D
Don't suppose I'll ever know 
                     Cadd9
What it means to be a man 
                     Cadd9  
Something I can't change 
C
I'll live around it

PRE-CHORUS:

E|----------------|
B|-----3----------|
G|-------0---0----|
D|---4-----4------|   
A|-5--------------|
E|----------------|

I wanna wake up where you are

E|----------------|
B|-----3----------|
G|-------0---0----|
D|---4-----4------|   
A|-5--------------|
E|----------------|

I won't say anything at all 

Chorus:

                   Cadd9  G Cadd9  G Cadd9  G  D D' D
So why don't you slide 
                   Cadd9  G Cadd9  G Cadd9  G  D D' D
Yeah we're gonna let it slide 

BRIDGE: 

Cadd9            G 
And I'll do anything you ever 
Cadd9            G 
Dreamed to be complete 
Em                     G            D  D'  D
Little pieces of the nothing that fall 
        Em             D 
(yeah slide) put your arms around me 
         Cadd9           Em
What you feel is what you are 
              G      
And what you are is beautiful 
        Em                   D        Cadd9
(yeah slide) you wanna get married Or run away
Tap to rate this tab
 
# A B C D E F G H I J K L M N O P Q R S T U V W X Y Z