Song name
# A B C D E F G H I J K L M N O P Q R S T U V W X Y Z

Goo Goo Dolls - Allthat You Are tab

Song: All That You Are
Album: Single; TF3 Soundtrack
Artist: Goo Goo Dolls

Intro and Verse 1&2

e |------------------------|
A |------------------------|
A |------------------------|
D |--4-----6----3----8-----|
A |--4-----6----3----8-----|
D |--4-----6----3----8-----|

Pre-chorus
... You saw me through... I was alone in the dark and the fear was my truth...
|--------------------------------|
|--------------------------------|
|--------------------------------|
|--8---6-------1--3--4--6--------|
|--8---6-------1--3--4--6--------|
|--8---6-------1--3--4--6--------|

Chorus
... And yeah, all the things that you are, beautifully broken, alive in my heart...
|------------------------------|
|------------------------------|
|------------------------------|
|--6-----4----8-----6----------|
|--4-----4----8-----6----------|
|--------4----8-----6----------|

...And know, that you are everything...
|---------------|
|---------------|
|---------------|
|--6-----4------|
|--4-----4------|
|--------4------|

...Let your heart sing, and tonight, we'll light up the stars... with all that you are
|----------------------------|
|----------------------------|
|----------------------------|
|--8---6----4----3---4-----6-|
|--8---6----4----3---4-----6-|
|--8---6----4----3---4-----6-|

Next, Verse pattern x2
I feel wrong, I'm so human and flawed..."
Prechorus, Chorus pattern the same, but End Chorus with, "... with all that you are...",
start Solo + Bridge Regression

Bridge & Solo

|-----------------------------|
|-----------------------------|
|-----------------------------|
|--9------8------7------6-----|
|--9------8------7------6-----|
|--9------8------7------6-----|

Then,

"...You opened the window, now I can see..."
|-----------------|
|-----------------|
|-----------------|
|--9------8-------|
|--9------8-------|
|--9------8-------|

End Bridge
"...And you taught me forgiveness, by giving your love back to me"
|----------------------------------------|
|----------------------------------------|
|----------------------------------------|
|---------1----3----4----434-----6-------|
|---------1----3----4----434-----6-------|
|---------1----3----4----434-----6-------|

Chorus 1st time is the same--
Chorus 2nd time is--
|---------------|
|---------------|
|---------------|
|--6-----4------|
|--4-----4------|
|--------4------|

...Let your heart sing, and tonight, we'll light up the stars... with all that you are
[here do (...Let your heart sing, and tonight)twice]
|----------------------------|
|----------------------------|
|----------------------------|
|--8---6----4----3---4-----6-|
|--8---6----4----3---4-----6-|
|--8---6----4----3---4-----6-|

Then follow verse pattern once and 2nd time play this-

e |------------------------------|
A |------------------------------|
A |------------------------------|
D |--4-----6----8----------------|
A |--4-----6----8----------------|
D |--4-----6----8----------------|     ...hold!

END
\m/ Rock on!!
Tap to rate this tab
# A B C D E F G H I J K L M N O P Q R S T U V W X Y Z