Song name
# A B C D E F G H I J K L M N O P Q R S T U V W X Y Z

Goo Goo Dolls - Slide Acoustic tab

My first tab :)
You can put a capo on 1st fret, but it sounds great without anyways.

e-----------------------------------------|
B------3-------3---------3-------3----3---|
G----0---2---2---2-----0---0---0----------|
D--2-------0-------0----------------------| x2
A--------------------3--------------------|
E----------------------------3-----2------| 

|Em7|Dsus2|Cadd9|Cadd9| x2

                        Cadd9
Riff:  -------------------3------|
       --------3----------3------|
       ------0---0--------0------|
       --0h2-------0------2------| x2
       -------------------3------|
       -------------------0------|

|Dsus2|
|Cadd9 G|Cadd9 G|Cadd9 G|Dsus2|

|Em7|Dsus2|Cadd9|Cadd9|

                        Cadd9
Riff:  -------------------3------|
       --------3----------3------|
       ------0---0--------0------|
       --0h2-------0------2------|
       -------------------3------|
       -------------------0------|

|Dsus2|
|Cadd9 G|Cadd9 G|Cadd9 G|Dsus2| x2
|Dsus2|

|Em7|Em7|Dsus2|Dsus2|

|Cadd9 G|Cadd9 G|Em7|Dsus2|
|Cadd9|

                        Cadd9
Riff:  -------------------3------|
       --------3----------3------|
       ------0---0--------0------|
       --0h2-------0------2------|
       -------------------3------|
       -------------------0------|

|Cadd9 G|Cadd9 G|Cadd9 G|Dsus2|Dsus2|
|Cadd9 G|Cadd9 G|Cadd9 G|Em7|
|Dsus2|Dsus2|

e-----------------------------------------|
B------3-------3---------3-------3----3---|
G----0---2---2---2-----0---0---0----------|
D--2-------0-------0----------------------|
A--------------------3--------------------|
E----------------------------3-----2------|

                               G
e------------------------------3--|
B------3-------3---------3-----3--|
G----0---2---2---2-----0---0---0--|
D--2-------0-------0-----------0--|
A--------------------3---------2--|
E------------------------------3--|

End on |G|
Tap to rate this tab
 
# A B C D E F G H I J K L M N O P Q R S T U V W X Y Z