Guitaretab - guitar tabs
Song name
# A B C D E F G H I J K L M N O P Q R S T U V W X Y Z

Goo Goo Dolls - Truth Is A Whisper tab

Hey all here is the correct version of the song. I have every song for 
gutterflower. i will post all of them soon. but here is a start. Email me 
with any questions, comments, etc. at huntersgte@yahoo.com

Truth is a whisper

Tuning:
C,F,Bb,Eb,C,D,


Intro Riff 1
D |-------------------------------------------------------------R
C |-------------------------------------------------------------E
Eb|--X-X-9-X-9-9-X-X-X-9-9-X-X-X-X-9-X-9-9-X-X-X-9-X-X-X-9-X-X--P
Bb|--X-X-X-X-X-X-X-X-X-X-X-X-X-X-X-X-X-X-X-X-X-X-X-X-X-X-X-X-X--E
F |--X-X-7-X-7-7-X-X-X-7-7-X-X-X-X-7-X-7-7-X-X-X-7-X-X-X-7-X-X--A
C |-------------------------------------------------------------T

Intro Riff 2
D |---------------------------
C |---------------------------
Eb|--------------------------- Repeat
Bb|--------------7--7---5--5--  4x
F |--2--2-5--5---5--5---3--3--
C |--0--0-3--3----------------

Verse Chords (listen on hoe much to play of them)
D |--0------0----
C |--0------0----
Eb|--0------0---- repeat
Bb|--x------x----   2x
F |--5-/7---3----
C |--------------
[ Tab from: http://www.guitaretab.com/g/goo-goo-dolls/29711.html ]
(On sceond repeat play this at the end)
D |---------------------------------------
C |---------------------------------------
Eb|---------------------------------------
Bb|--7-9--9-9-9-9-9-9-9-9-9-9-9-9-9-------
F |--5-7--7-7-7-7-7-7-7-7-7-7-7-7-7--9 10-
C |----------------------------------7-8--


Chours (Chours chords)
repeat Intro Riff 2 

Truth is a whisper and only a choice
Nobody hears above this noise
Always a risk when you try and believe
I know there's so much more than me

Yeah I got caught in the ruse of the world
It's just a promise no one ever keeps
And now it's changing while we sleep
And no one can see

Chorus:
You know all I am
Feel this moment in you
You know all I am
Can you teach me to believe in something

Sometimes you choke on the smell
Just to breathe
I need to question what I need
Rhythm of silence
That beats through your mind
Still you forget what you deny

Yeah I got caught in the ruse of the world
It's just a promise no one keeps
And now it's changing while we sleep
And no one can see

Chorus

Who's the one you answer to
Do you listen when he speaks
Or is everything for you
And do you find it hard to sleep
Or is it easy on your own
Will you ever find some peace
Before you're gone

Chorus
Related for Truth Is A Whisper tab
Truth Is A Whisper chords by Goo Goo Dolls