Song name
# A B C D E F G H I J K L M N O P Q R S T U V W X Y Z

Goo Goo Dolls - Still Your Song chords

Highlighted       Show chord diagrams
-------------------------------------------------------------------------------
			     Still Your Song - Goo Goo Dolls
-------------------------------------------------------------------------------

Tabbed by: Josh Daley
Email: jshdaley@gmail.com


Tuning: Standard - Capo 2


Chords:
    E  B  A  F#
e|--0--0--0--x--|
B|--0--0--0--x--|
G|--9--4--2--3--|
D|--9--4--2--4--|
A|--7--2--0--4--|
E|--0--0--0--2--|


Intro:

e|---------0------------2----------0----------0--|
B|-----------------------------------------------|
G|------9-----------4------------2--------4------|
D|----9-----------4------------2------------4----|  X3
A|--7-----------2------------0----------2--------|
E|-----------------------------------------------|


VERSE 1:

E
Called you up ten years too late
B
Just to hear your voice again
A
I know your voice is still the same
B
I know that something's changed

VERSE 2:

E
My words are choked and full of tears
B
But still you listen to me dear
A
And someone's calling you away
B
And now I understand


PRE CHORUS:

F#                A
The time that I've wasted
              F#
So bitter and faithless
              A
Is wearing me down now
B
Down now

CHORUS: 

E
So can you hear me
B
Or would you sing along
A
Or turn me down
B
Forget I ever wrote this for you

E
So can you hear me
B
Or has it been too long
A
I know that I was wrong
B
And this is still your song


VERSE 3:

E
Turn it on and off again
B
And now I lost another friend
A
You waded through my darkest thoughts
B
When I was sure to drown

VERSE 4:

E
And now I pass you on my way
B
And if you stop, what could I say
A
Apologies for yesterday
B
Like a fool, I walk away


PRE CHORUS:


CHORUS:


BRIDGE:

[Intro riff]
And all I understand
We're here and gone again
Even through a thousand sleepless nights

[Intro riff]
I fill the page with my beliefs
It's all I have to keep
Tear it up and start again

CHORUS:

ENDING:
  E
I don't pretend to understand
        B
All the things I put you through
     E
And I don't need forgiveness
      B
But I owe one thing to you
             A
This is your song
             B         E
This is your song
Tap to rate this tab
# A B C D E F G H I J K L M N O P Q R S T U V W X Y Z