Song name
# A B C D E F G H I J K L M N O P Q R S T U V W X Y Z

Goo Goo Dolls - Here Is Gone tab

Tabbed by: Josh Daley

Tuning: Db Ab Db Ab Db F


INTRO/VERSE:

--------0-0---0-0-0------0-0--0-0-0---0-0-0----0-0--0-0-0--|
--------0-0---0-0-0------0-0--0-0-0---0-0-0----0-0--0-0-0--|
--5/7-7-----5-------5/7-7----5------0-0-0-0----0-0--0-0-0--|  x4
--7/9-9-----7-------7/9-9----7------x-----x------x------x--|
------------------------------------7-----7--5---5------5--|
------------------------------------7-----7--5---5------5--|


PRE-CHORUS:

--0----0----0--------0----0----0----0----|
--2----0----0--------2----0----0----0----|
--2----0----0--------2----0----0----0----|
--2----4----7--------2----4----2----x----|
--x----2----5--------x----2----0----5----|
--x----x----x--------x----x----x----5----|


CHORUS:

--3----3----0----0--0--|
--0----0----0----0--0--|
--0----0----0----0--0--| x2
--0----0----4----2--x--|
--5----4----2----0--5--|
--x----x----x----x--5--|


INTERLUDE (play intro/verse x1)


VERSE (play intro/verse x2)


PRE-CHORUS


CHORUS x2


BRIDGE:

--0----0----0----0----0----0----0--0---0--0--------0-0-0-0-0-0-0-|
--0----0----0----2----0----0----0--2---0--0------0-0-0-0-0-0-0-0-|
--4----0----0----0----4----0----0--0---0--4----0-0-0-0-0-0-0-0-0-|(cresendo)
--4----x----7----x----4----x----7--x---4--2--x-x-x-x-x-x-x-x-x-x-|
--2----5----5----4----2----5----5--4---2--0--5-5-5-5-5-5-5-5-5-5-|
--x----5----x----x----x----5----x--x---x--x--5-5-5-5-5-5-5-5-5-5-|


CHORUS x2


OUTRO-CHORUS:

--3----3----0----0--0--|
--0----0----0----0--0--|
--0----0----0----0--0--| x2
--0----0----4----2--x--|
--5----4----2----0--5--|
--x----x----x----x--5--|

--3----3----0----0--0--0----|
--0----0----0----0--0--0----|
--0----0----0----0--0--0----|
--0----0----4----2--x--7----|
--5----4----2----0--5--5----|
--x----x----x----x--5--x----|
Tap to rate this tab
# A B C D E F G H I J K L M N O P Q R S T U V W X Y Z