Song name
# A B C D E F G H I J K L M N O P Q R S T U V W X Y Z

Goo Goo Dolls - All That You Are tab

Tabbed By: Josh Daley

Tuning: C G C G C C



Intro/Verse:

--0--0--0--0--|
--0--0--0--0--|
--2--4--4--5--|
--0--0--0--0--|
--2--4--x--5--|
--x--x--4--x--|



Pre chorus:

--0----0----0--0--0--0--|
--0----0----0--0--0--0--|
--0----0----0--0--0--0--|
--x----x----x--x--x--x--|
--9----7----2--4--5--7--|
--9----7----2--4--5--7--|



Chorus:

--0----0----0----0----|
--0----0----0----0----|
--0----0----0----0----|
--0----x----x----x----|
--0----5----2----7----|
--0----5----2----7----|

--0----0----0--0--0--0--0----0----|
--0----0----0--0--0--0--0----0----|
--0----0----0--0--0--0--0----0----|
--0----x----x--x--x--x--x----x----|
--0----5----9--7--5--5--2----7----|
--0----5----9--7--5--4--2----7----|

--0--0--0--0--0--0--0----|
--0--0--0--0--0--0--0----|
--2--4--4--5--2--4--4----|
--0--0--0--0--0--0--0----|
--2--4--x--5--2--4--x----|
--x--x--4--x--x--x--4----|



Bridge:

--0----0----0----0----|
--0----0----0----0----|
--3----2----1----0----| x2
--0----0----0----x----|
--3----2----1----7----|
--x----x----x----7----|

--0----0----0--0--0----0----|
--0----0----0--0--0----0----|
--3----2----0--0--0----0----|
--0----0----x--x--x----x----|
--3----2----2--4--5----7----|
--x----x----2--4--5----7----|



Final Chorus:

--0----0----0----0----|
--0----0----0----0----|
--0----0----0----0----|
--0----x----x----x----|
--0----5----2----7----|
--0----5----2----7----|

--0----0----0--0--0----|
--0----0----0--0--0----|
--0----0----0--0--0----|
--0----x----x--x--x----|
--0----5----9--7--5----|
--0----5----9--7--5----|

--0----0----0----0----|
--0----0----0----0----|
--0----0----0----0----|
--0----x----x----x----|
--0----5----2----7----|
--0----5----2----7----|

--0----0----0--0--0----|
--0----0----0--0--0----|
--0----0----0--0--0----|
--0----x----x--x--x----|
--0----5----9--7--5----|
--0----5----9--7--5----|

--0--0--0--0--0----0----|
--0--0--0--0--0----0----|
--0--0--0--0--0----0----|
--x--x--x--x--x----x----|
--9--7--5--5--2----7----|
--9--7--5--4--2----7----|



Ending:

--0--0--0--0--|
--0--0--0--0--|
--2--4--4--5--| x3
--0--0--0--0--|
--2--4--x--5--|
--x--x--4--x--|

--0--0--0--0----|
--0--0--0--0----|
--2--4--4--0----|
--0--0--0--2----|
--2--4--x--x----|
--x--x--4--2----|
Tap to rate this tab
 
# A B C D E F G H I J K L M N O P Q R S T U V W X Y Z