Song name
# A B C D E F G H I J K L M N O P Q R S T U V W X Y Z

Goo Goo Dolls - Big Machine tab

Tabbed by: Josh Daley

Tuning: Eb Bb [X] Bb D [X]



Intro:

-----------------------------------------------------------------------------------------|
-------------------------------------------------------0-----0-0--0---0---0--0--0---0----|
--5--5-x-x-5--x-x-4--4--x-x-4^5--5-x-x-5--x-4-4--4-----0-----0-0--0---0---0--0--0---0----|
-----------------------------------------------------------------------------------------|
--5--5-x-x-5--x-x-5--5--x-x-5----5-x-x-5--x-5-5--5--0--2/4---4-4--4---4---4--4--4---2----|
----------------------------------------------------0--2/4---4-4--4---4---4--4--4---2----|


-------------------------------------------------------|
-------------------------------------------------------|
--4^5-5-x-x-5--x-x-4--4--x-x-4^5--5-x-x-5--x-4-4--0----|
-------------------------------------------------------|
--5---5-x-x-5--x-x-5--5--x-x-5----5-x-x-5--x-5-5--0----|
-------------------------------------------------------|



Verse:

-----------------------------------------------------------------------------------------|
-------------------------------------------------------0-----0-0--0---0---0--0--0---0----|
--5--5-x-x-5--x-x-4--4--x-x-4^5--5-x-x-5--x-4-4--4-----0-----0-0--0---0---0--0--0---0----|
-----------------------------------------------------------------------------------------|
--5--5-x-x-5--x-x-5--5--x-x-5----5-x-x-5--x-5-5--5--0--2/4---4-4--4---4---4--4--4---2----|
----------------------------------------------------0--2/4---4-4--4---4---4--4--4---2----|


---------------------------------------------------------------------------------------|
-------------------------------------------------------0--0-0---0--0--0---0--0-0--0----|
--5--5-x-x-5--x-x-4--4--x-x-4^5--5-x-x-5--x-4-4--4-----0--0-0---0--0--0---0--0-0--0----|
---------------------------------------------------------------------------------------|
--5--5-x-x-5--x-x-5--5--x-x-5----5-x-x-5--x-5-5--5--0--2--0-0---4--4--4---2--2-2--0----|
----------------------------------------------------0--2--0-0---4--4--4---2--2-2--0----|



Pre-chorus:

------------------------------------------------------------------------------------|
--0^3--3---3--3--0--0--0^3-3---3--3--0--0--0^3-3---3--3--0--0--0^3--3---3--3--0--0--|
--0----0---0--0--0--0--0---0---0--0--0--0--0---0---0--0--0--0--0----0---0--0--0--0--|
------------------------------------------------------------------------------------|
--0--------------------0-------------------0-------0-----0-----4-----------4-----2--|
--0--------------------0-------------------0-------0-----0-----4-----------4-----2--|

---------------------------------------------------------------------------------------|
--0^3--3---3--3--0--0--0^3-3---3--3--0--0----------------------0-----0--0--0--0--0--0--|
--0----0---0--0--0--0--0---0---0--0--0--0----------------------0-----0--0--0--0--0--0--|
---------------------------------------------------------------------------------------|
--0--------------------0-------------------2-------0--0--------2/4---4--2--2--0--0--0--|
--0--------------------0-------------------2-------0--0--------2/4---4--2--2--0--0--0--|



Chorus:

-----------------------------------------------------------------------|
--0----------------0----------------0----------------0-----------------|
--0----------------0----------------0----------------0-----------------| x2
-----------------------------------------------------------------------|
--7----------------2----------------4----------------2-----------^0-0--|
--7----------------2----------------4----------------2-----------^0-0--|



Interlude:

-------------------------------------------------------------|
--8-x-x-8-x-x-8-x-x-x-x-8--8--x-x-8-x-x-8-x-x-8-8-8-8-8-8-8--|
--7-x-x-7-x-x-7-x-x-x-x-7--7--x-x-7-x-x-7-x-x-7-7-7-7-7-7-7--|
-------------------------------------------------------------|
--0----------------------------------------------------------|
--0----------------------------------------------------------|



Outro:

-----------------------------------------------------------------------------------------------|
--0----------------0----------------8-x-x-8-x-x-8-x-x-x-x-8--8--x-x-8-x-x-8-x-x-8-8-8-8-8-8-8--|
--0----------------0----------------7-x-x-7-x-x-7-x-x-x-x-7--7--x-x-7-x-x-7-x-x-7-7-7-7-7-7-7--|x3
-----------------------------------------------------------------------------------------------|
--4----------------2----------^0-0--0----------------------------------------------------------|
--4----------------2----------^0-0--0----------------------------------------------------------|

---------------------------------------------------------------------|
--0----------------0----------------8--------------------------------|
--0----------------0----------------7--------------------------------|
---------------------------------------------------------------------|
--4----------------2----------^0-0--0--------------------------------|
--4----------------2----------^0-0--0--------------------------------|
                                    Let ring ------------------------|
Tap to rate this tab
# A B C D E F G H I J K L M N O P Q R S T U V W X Y Z