Song name
# A B C D E F G H I J K L M N O P Q R S T U V W X Y Z

Goo Goo Dolls - Slide chords

Highlighted       Show chord diagrams
-------------------------------------------------------------------------------
Slide Ė Goo Goo Dolls
-------------------------------------------------------------------------------
Tabbed by: The Gentleman
E-mail: thegentleman616@gmail.com

Capo: 1st Fret
Tuning: Drop to ĎDí (EADGBd)
This is such a beautiful songÖ
Intro Picking---
   Cadd9                             G      D\F#
d|---------------------------------------------------------------------|
B|------3--------3----------3------------------------------------------|
G|--------0----0---0------0---0--------0-------------------------------|
D|----2-----0--------0----------2----0------0--------------------------|
A|--3------------------3-----------------------------------------------|
E|--------------------------------3-------2----------------------------|(X2)
(Then comes a little distortion and the voice. It starts in Em. The Riff above is 
also played at the end of the song as well)

Verse1
Em                       D                         Cadd9
 Could you whisper in my ear, the things you wanna feel
            Cadd9
Iíd give you anything, to feel it cominí
Em                      D                        Cadd9 
 Do you wake up on your own, and wonder where you are

Do you live with all you faults

                (a little riff to go along after voice going into the chorus. Itís 
relative to capo, so what you see on tab is counted up from capo, not from nut.)
   (Barchord G
     Basically)      C
d|-------------------3--|
B|----------0--------5--|
G|-------4-----4-----5--|
D|--3\5-----------5--5--|
A|-------------------3--|
E|-------------------3--|

Chorus

I wanna wake up where you are     
I wonít say anything at all
                 Cadd9  G  Cadd9 G  D
So why donít you slide
                      Cadd9  G  Cadd9   G
Yeah, weíre gonna let it slide

Verse2

Donít you love the life youíve killed, the priest is on the phone
Your father hit the wall, you ma disowned you
Donít suppose Iíll ever know
What it means to be a man
Itís something that I canít change
Iíll live around

    (straight into it this time without riff)


Bridge 
    Cadd9        G               Cadd9            G
And Iíll do anything youíve ever dreamed to be complete
       Cadd9        G            D
Little pieces, of nothing, that fall----
     Em                  D  
Whoa May, put your arms around me

         Cadd9            G\B
What you feel is what you are
             Cadd9       G\B
And what you are is beautiful
     Em                     D
Whoa May, do ya wanna get married
       Cadd9
Or run away




The outro

Slide
 (slide between the sheets of all the beds you never knew)
Wonít you slide into my room, slide into my room
Run away, run away, run away

        Intro picking again, then END!!! :D 
        Questions or comments, email me.
Tap to rate this tab
# A B C D E F G H I J K L M N O P Q R S T U V W X Y Z