Song name
# A B C D E F G H I J K L M N O P Q R S T U V W X Y Z

Goo Goo Dolls - What Do You Need tab

intro    repeated                               verse x4
e(--------------------------------------------)(-------------------)
b(-------------------------5------------------)(-------------------)
g(--555-7------------------5------------------)(-------------------)
d(--555-7------7---5-------3------7---5-------)(-------7---5-------)
a(--333-5-8-10---8---8-7-5---8-10---8---8-7-5-)(--8-10---8---8-7-5-)
D(--------------------------------------------)(-------------------)

2nd verse(lead)
e(----)             (------------)
b(----)  repeated   (--10--------)
g(----)             (-----9b/7-7-)
d(----)             (------------)
a(--5-)             (------------)
D(----)             (------------)
  pm.

pre-chorus
e(-------------------------------------------------------------------------)
b(-------------------------------------------------------------------------)
g(---------------------------------------------------3333333333333333-xxxx-)
d(--3333333355555555-0-0-7---0-0-7---33333333555555553333333333333333-xxxx-)
a(--3333333355555555-0-0-----0-0-----33333333555555551111111111111111-xxxx-)
D(--3333333355555555-0-0-----0-0-----3333333355555555-----------------xxxx-)

chorus  x4
e(---------------------------)
b(---------------------------)
g(--777-xx-777-xx-333-xx-333-)
d(--777-xx-777-xx-333-xx-333-)
a(--555-xx-555-xx-111-xx-111-)
D(---------------------------)

bridge
e(------------------------------------------------)
b(--------------------6-------6-------6-------6---)
g(------------------5---5---5---5---5---5---5---5-)
d(--3-5-77-55-33--3-------3-------3-------3-------)
a(------------------------------------------------)
D(------------------------------------------------)

bridge continued
e(----------------------------------x--------------)
b(----------------------------------5--------------)
g(----------------------------------7--------------)
d(------3-------3-------0-------0---7--pick-scrape-)
a(----3---3---3---3---0---0---0---0-5--------------)
D(--3-------3-------0-------0----------------------)
Tap to rate this tab
# A B C D E F G H I J K L M N O P Q R S T U V W X Y Z