Song name
# A B C D E F G H I J K L M N O P Q R S T U V W X Y Z

Goo Goo Dolls - The Sweetest Lie tab

Song: The Sweetest Lie
Band: The Goo Goo Dolls
Album: Something For the Rest of Us

Intro:

e----0h7--7---0h7--7---0---7----5--5--4-------| (x4)
B---------------------------------------------|
G---------------------------------------------|
D---------------------------------------------|
A---------------------------------------------|
E---------------------------------------------|

Chords: E, D, A

   E    D    A   Asus2?     Note: The Asus2 is just if you want to throw in
e--0----2----0----0----|           variation. It would go right before the A
B--0----3----2----3----|           chord like a pull off.
G--1----2----2----2----|
D--2----0----2----2----|
A--2----0----0----0----|
E--0----0----0----0----|

   E                                D
You play your part so easily, you fooled yourself again

   A                                                 E
With your lipstick smeared across some face you'll never see again

And I sat there in the corner working back my memories
And I wondered if the time would come you'd get around to me

  Oh   Oh  Oh   Oh  living the sweetest lie (x2)

e--0----0---0----0--0--0--0---0---0---------------|
B--0----0---0----0--0--0--0---0---0---------------|
G--7----9---7----9--7--9--14--9---9---------------|
D--7----9---7----9--7--9--14--9---9---------------|
A--5----7---5----7--5--7--12--7---7---------------|
E--0----0---0----0--0--0--0---0---0---------------|

You can also play this as bar chords. Just leave D and G the same, and press
down all of the other strings, matched with the A string.


Verse 2

Chorus

Bridge:

e----0-------------0-----------------0----------------0-----------|
B----0-------------0-----------------0----------------0-----------|
G----9-------------7-----------------2----------------2-----------|
D----9-------------7-----------------2----------------2-----------|
A----7-------------5-----------------0----------------0-----------|
E----0-------------0-----------------0----------------0-----------|

Chorus (x2)



Have fun with this song!
~JH
Tap to rate this tab
# A B C D E F G H I J K L M N O P Q R S T U V W X Y Z