Song name
# A B C D E F G H I J K L M N O P Q R S T U V W X Y Z

Goo Goo Dolls - Come To Me tab

tuning: open c (C G C G C E)

strumming:(Base note followed by) D UDU
first tab i've ever done, sorry if its not that great!!!


C|------0------0-----------------------------0-------------0-----------------|
G|------0------0-----------------------------0-------------0-----------------|
C|------0------0-----------------------------0-------------0-----------------|
G|------0------0-----------------------------0-------------0-----------------|
C|------0------0-----------------------------0-------------0-----------------|
E|---0--0---0--0-------------------------5---5---------5---5-----------------|
(play twice for intro)


(verses)

C|------0---------0---------------------0----------------0-------------------------|
G|------0---------0---------------------0----------------0-------------------------|
C|------0---------0---------------------0----------------0-------------------------|
G|------0---------0---------------------0----------------0-------------------------|
C|------0---------0---------------------0----------------0-------------------------|
E|---0--0------0--0------------------5--5------------5---5-------------------------|
I'll be kind, if you'll be faithful, You be sweet and I'll be grateful... 
(continues for all verses)


chorus:

C|------0---------0---------------------0----------------0--------------------|
G|------0---------0---------------------0----------------0--------------------|
C|------0---------0---------------------0----------------0--------------------|
G|------0---------0---------------------0----------------0--------------------|
C|------0---------0---------------------0----------------0--------------------|
E|---0--0------0--0------------------5--5------------5---5--------------------|
    come to me my sweetest friend, can you feel my heart again

C|------0---------0---------------------0----------------0--------------------|
G|------0---------0---------------------0----------------0--------------------|
C|------2---------2---------------------0----------------0--------------------|
G|------0---------0---------------------1----------------1--------------------|
C|------2---------2---------------------0----------------0--------------------|
E|---0--0------0--0------------------0--0------------0---0--------------------|
 ill take you back where you belong, this can be our favorite song...(play twice for chorus)
Tap to rate this tab
 
# A B C D E F G H I J K L M N O P Q R S T U V W X Y Z