Song name
# A B C D E F G H I J K L M N O P Q R S T U V W X Y Z

Goo Goo Dolls - Come To Me tab

Tabbed & Arranged by Josh Daley

Tuning: C G C G C C

Verse:

----0-0-0-0--|
----0-0-0-0--|
----0-0-0-0--| x2
----4-4-4-4--|
--5-5-5-5-5--|
--x----------|
  ^ ^ v ^ v

----0-0-0-0--|
----0-0-0-0--|
----0-0-0-0--| x2
----4-4-4-4--|
--x-5-5-5-5--|
--5----------|
  ^ ^ v ^ v


Post-verse interlude:

--0--0--0--0--0----0--       --0------0---0---|
--0--0--0--0--0----0--       --0------0---0---|
--0--0--0--0--0----0--   OR  --0------0---0---| x2
--x--x--x--x--x----x--       --x------x---x---|
--5--7--9--10-9----7--       --5------9---7---|
--x--x--x--x--x----x--       --5------9---7---|

--0--0--0--0--0------|
--0--0--0--0--0------|
--0--0--0--0--0------|
--x--x--x--x--x------|
--5--7--9--10-7------|
--x--x--x--x--x------|


1st & 2nd Pre-chorus:

--0--------|
--0--------|
--0--------|
--x--------|
--5--------|
--5--------|


1st Chorus:

--0----0----0----0----|
--0----0----0----0----|
--0----0----0----0----| x2
--4----4----2----x----|
--5----2----0----5----|
-----------------5----|


Post-chorus interlude:

--0--0--0--0--0----0--|
--0--0--0--0--0----0--|
--0--0--0--0--0----0--| x2
--x--x--x--x--x----x--|
--5--7--9--10-9----7--|
--x--x--x--x--x----x--|


2nd & 3rd Chorus:

--0----0----0----0----|
--0----0----0----0----|
--0----0----0----0----| x2
--4----4----2----x----|
--5----2----0----5----|
-----------------5----|

--0---0---0---0---|
--0---0---0---0---|
--0---0---0---0---| x2
--x---x---x---x---|
--5---9---7---5---|
--5---9---7---5---|

--0--------|
--0--------|
--0--------|
--x--------|
--5--------|
--5--------|


Bridge:

--0-------------------|
--0-------------------|
--0-------------------|
--4----x----4----x----|
--5----5----5----5----|
-------5----x----5----|

3rd pre-chorus:

--0--------|
--0--------|
--0--------|
--x--------|
--5--------|
--5--------|

--0---0---0------|
--0---0---0------|
--0---0---0------| x2
--x---x---x------|
--9---7---5------|
--9---7---5------|

Outro:

--0--0--0--0--0----0--          --0------0---0---|
--0--0--0--0--0----0--          --0------0---0---|
--0--0--0--0--0----0-- x2   OR  --0------0---0---| x2
--x--x--x--x--x----x--          --x------x---x---|
--5--7--9--10-9----7--          --5------9---7---|
--x--x--x--x--x----x--          --5------9---7---|

--0------0--|
--0------0--|
--0------0--| (let ring)
--x------4--|
--5------5--|
--5---------|
Tap to rate this tab
# A B C D E F G H I J K L M N O P Q R S T U V W X Y Z