Song name
# A B C D E F G H I J K L M N O P Q R S T U V W X Y Z

Goo Goo Dolls - Broadway chords

Highlighted       Show chord diagrams
Tabbed by: bpez96
Tuning: Half-step down D#G#C#F#A#D#
/=slide
H=hammer-on
~=slight bend

Intro: C Am [x2] 
C Am F C G

Riff: 
e|-------------------------------------------------------|
B|------------8--------------5---------------------------|
G|------4/5----------7--5-7----7-5----4/5-7--------------|
D|----------------------------------7-------7-5----------|
A|-------------------------------------------------------|
E|-------------------------------------------------------|

First Chorus: 
Broadway is Dark Tonight
e|---------0---------0----------0-----0---|
B|-----------1---------1----------1-----1-|
G|------0---------0----------0------0-----|
D|----------------------------------------|
A|----0-----------------------------------|
E|-------------3----------1---------------|
A little bit weaker than you used to be
e|--------0---------0---------0----------0-----|
B|----------1---------1----------------1---1---|
G|-----0---------0---------0---------0---------|
D|---------------------------------------------|
A|---3-----------------------------3-----------|
E|-------------3---------1---------------------|
Broadway is Dark Tonight
e|---------0---------0----------0------0-----0-----0-----0---|
B|-----------1---------1----------1------1-----1-----1-----1-|
G|------0---------0----------0-------0-----0-----0-----0-----|
D|-----------------------------------------------------------|
A|----0------------------------------------------------------|
E|-------------3----------1----------------------------------|
See the young man sitting in the old mans bar
e|--------0---------0---------0---------0------|
B|----------1---------1---------1----------1---|
G|-----0---------0---------0---------0---------|
D|---------------------------------------------|
A|---3-----------------------------3-----------|
E|-------------3---------1---------------------|
Waiting for his turn to die
e|---------0----------0---------|
B|-----------1-----------1------|
G|-----------------0------------|
D|-----2------------------------|
A|---0----------2---------------|
E|------------------------------|

C Am [x2]

Second Riff:
e|-------------------------------------------------------|
B|-----5/6-8--8----------------10-8----------------------|
G|-----------------------------------10-9~---------------|
D|-------------------------------------------------------|
A|-------------------------------------------------------|
E|-------------------------------------------------------| 

Verse:
C            Am 
The cowboy kills the rockstar, 
C           Am 
and Friday night's gone too far 
C            Am                   F 
The dim light hides the years on all the faded girls 
C            Am 
Forgotten but not gone, 
C           Am
you drink it off your mind 
C            Am 
You talk about the world 
          F            C           G 
like it's some place that you've been 
               Am7
You see you'd love to run home, but you know you ain't got one, 
                F
'cause you're living in a world that you're best forgotten 
        G           F
'round here

Chorus: 
Am          G        F 
Broadway is dark tonight 
C             G                F     C 
A little bit weaker than you used to be 
Am          G        F 
Broadway is dark tonight 
          C          G            F         C 
See the young man sitting in the old man's bar, 
Dm                F 
waiting for his turn to die 

C  Am [x2] 

Third Riff:
e|-----------------------------|
B|---5/8-8-8------6--5--3--5---|
G|-----------------------------|
D|-----------------------------|
A|-----------------------------|
E|-----------------------------|

e|--------------------------------|
B|---5/8-8-8------6--5--3--5-3----|
G|------------------------------5-|
D|--------------------------------|
A|--------------------------------|
E|--------------------------------|

Verse 2:
C              Am
You choke down all your anger,
C             Am
forget your only son
C               Am             F
You pray to statues when you sober up for fun
C            Am
Your anger don't impress me,
C                 Am
the world slapped in your face
C          Am                    F        C      G
It always rains like hell on the Losers' Day parade
               Am7
You see you'd love to run home, but you know you ain't got one, 
                F
'cause you're living in a world that you're best forgotten 
            Am7
when you're thinking of a joke, ain't nobody's gonna listen
        F
to the one small point
                                    G                 F
I know they've been missing 'round here

Chorus:
Am          G        F 
Broadway is dark tonight 
C             G                F     C 
A little bit weaker than you used to be 
Am          G        F 
Broadway is dark tonight 
          C          G            F         C 
See the young man sitting in the old man's bar, 
Dm                F 
waiting for his turn to die 

Solo:
e|--------------------------------|
B|-----5--3--5--6--5--3--5--3-----|
G|--5--------------------------5--|
D|--------------------------------|
A|--------------------------------|

E|--------------------------------|
e|--------------------------------|
B|--5--3--5--6--5--3--5--3--------|
G|--------------------------------|
D|--------------------------------|
A|--------------------------------|
E|--------------------------------|

e|-----------------------------------|
B|--6-5------------------------------|
G|-------7--7---5--------------5--7--|
D|-----------------7--5--7-----------|
A|-----------------------------------|
E|-----------------------------------|

e|----------------------------------|
B|--6/5-------5--6--8-9--14-14------|
G|-------7----------7-10-15-15------|
D|----------------------------------|
A|----------------------------------|
E|----------------------------------| 

               Am7
You see you'd love to run home, but you know you ain't got one, 
                F
'cause you're living in a world that you're best forgotten 
            Am7
when you're thinking of a joke, ain't nobody's gonna listen
        F
to the one small point
                                   G                 F
I know they've been missing 'round here
        G   F
'round here
G   F

Not sure if this is right:
e|----------------------------------|
B|---------------------5-7--7-5-----|
G|-----------3-5--7-5--5-7--7-5-----|
D|------3-5---------------------7-5-|
A|--3-5-----------------------------|
E|----------------------------------|

Chorus:
Am          G        F 
Broadway is dark tonight 
C             G                F     C 
A little bit weaker than you used to be 
Am          G        F 
Broadway is dark tonight 
          C          G            F         C 
See the young man sitting in the old man's bar, 
Dm                F 
waiting for his turn to die     
Tap to rate this tab
# A B C D E F G H I J K L M N O P Q R S T U V W X Y Z