Song name
# A B C D E F G H I J K L M N O P Q R S T U V W X Y Z

Goo Goo Dolls - Happiest Of Days tab

Tabbed & Arranged by: Josh Daley

Tuning: D A D A D D



Intro & verse: (ad libitum)

-------0--------------0--------------0--------------0---------|
----------0--------------0--------------0--------------0------|
-----0------0-------0------0-------0------0-------0------0----| x 3
--0-----------0--------------0--------------0--------------0--|
--5--------------2--------------5--------------7--------------|
-----------------2--------------5--------------7--------------|

-------0--------------0--------------0---------|
----------0--------------0--------------0------|
-----0------0-------0------0-------0------0----|
--0-----------0--------------0--------------0--|
--5--------------2--------------5--------------|
-----------------2--------------5--------------|



Pre-chorus:

-------0-------0-------0---------|
--------------------------0------|
-----0-------0-------0------0----|
------------------------------0--|
------------------5--------------|
--9-------7-------5--------------|

-------0-------0-------0---0-----0-|
-------------------------0---0-----|
-----0-------0-------0---------0---|
-----------------------------------|
------------------5----------------|
--9-------7-------5----------------|



Verse:

--0----0----0----0----|
--0----0----0----0----|
--0----0----0----0----|
--0----x----x----x----|
--0----2----5----7----|
--0----2----5----7----|



Pre-chorus:

--0--0----0----|
--0--0----0----|
--0--0----0----|
--x--x----x----|
--9--7----5----|
--9--7----5----|

--0--0----0--------|
--0--0----0--------|
--0--0----0--------|
--x--x----x--------|
--9--7----5--------|
--9--7----5--------|



Chorus:

--0--0--0----0--0--0----0----0----0----|
--0--0--0----0--0--0----0----0----0----|
--0--0--0----0--0--0----0----0----0----|
--7--4--2----7--4--x----x----x----2----|
--5--2--0----5--2--5----5----5----0----|
-------------------5----4----5---------|

--0--0--0----0--0--0----0----0----0----0----0----|
--0--0--0----0--0--0----0----0----0----0----0----|
--0--0--0----0--0--0----0----0----0----0----0----|
--7--4--2----7--4--x----x----x----4----2----x----|
--5--2--0----5--2--5----5----5----2----0----5----|
-------------------5----4----5--------------5----|



Bridge:

---0----0----0---------0----0----0----------|
---0----0----0---------0----0----0----------|
--10---\9---\7-------/10---\9---\5----------|
---0----0----0---------0----0----0----------|
--10---\9---\7-------/10---\9---\5----------|
--------------------------------------------|

----0----0----0--0--0----0--0--0--0----|
----0----0----0--0--0----0--0--0--0----|
--/10---\9---\7-\5-\4---\2-/4-/5-/7----|
----0----0----0--0--0----0--0--0--0----|
--/10---\9---\7-\5-\4---\2-/4-/5-/7----|
---------------------------------------|



Solo: (ad libitum)


---0----0--0-0----0----0--0--|
---0----0--0-0----0----0--0--|
--\5---/9-10-7--/10---10--9--|
---0----0--0-0----0----0--0--|
--\5---/9-10-7--/10---10--9--|
-----------------------------|



Final chorus:

--0--0--0----0--0--0----0----0----0--------|
--0--0--0----0--0--0----0----0----0--------|
--0--0--0----0--0--0----0----0----0--------| x 2
--7--4--2----7--4--x----x----x----2--------|
--5--2--0----5--2--5----5----5----0--------|
-------------------5----4----5-------------|

--0--0--0----0--0--0----0----0----0----0----0----|
--0--0--0----0--0--0----0----0----0----0----0----|
--0--0--0----0--0--0----0----0----0----0----0----|
--7--4--2----7--4--x----x----x----4----2----x----|
--5--2--0----5--2--5----5----5----2----0----5----|
-------------------5----4----5--------------5----|



Outro:

--0----0----0----|
--0----0----0----|
--0----0----0----| Let ring
--4----2----x----|
--2----0----5----|
------------5----|
Tap to rate this tab
 
# A B C D E F G H I J K L M N O P Q R S T U V W X Y Z